  0
SECTION
  2
HEADER
  9
$ACADVER
  1
AC1006
  9
$AXISMODE
 70
     0
  9
$AXISUNIT
 10
0.0625
 20
0.0625
  9
$CECOLOR
 62
0
  9
$CELTYPE
  6
CONTINUOUS
  9
$CLAYER
  8
LAYER1
  9
$EXTMIN
 10
0
 20
0
  9
$EXTMAX
 10
13.741
 20
10.8645
  9
$LIMMIN
 10
0
 20
0
  9
$LIMMAX
 10
13.741
 20
10.8645
  9
$GRIDMODE
 70
     0
  9
$GRIDUNIT
 10
0.125
 20
0.125
  9
$MIRRTEXT
 70
     1
  9
$SNAPMODE
 70
     1
  9
$SNAPUNIT
 10
0.125
 20
0
  9
$SNAPSTYLE
 70
     0
  9
$SPLINESEGS
 70
     8
  9
$SPLINETYPE
 70
     6
  0
ENDSEC
  0
SECTION
  2
TABLES
  0TABLE  2VPORT 70     2  0VPORT  2*ACTIVE 70     0 100.0 200.0 111.0 211.0 1213.01087 224.5 130.0 230.0 141.0 241.0 150.0 250.0 160.0 260.0 361.0 170.0 270.0 370.0 409.0 412.891304 4250.0 430.0 440.0 500.0 510.0 71     0 72   100 73     1 74     1 75     0 76     0 77     0 78     0  0ENDTAB
  0
TABLE
  2
LTYPE
 70
     1
  0
LTYPE
  2
CONTINUOUS
 70
    64
  3
Descriptive Text
 72
    65
 73
     0
 40
0
  0
ENDTAB
  0
TABLE
  2
LAYER
 70
     1
  0
LAYER
  2
LAYER1
 70
     0
 62
     7
  6
CONTINUOUS
  0
ENDTAB
  0TABLE  2STYLE 70     1  0STYLE  2STANDARD 70     0 400.0 411.0 500.0 71     0 420.2  3txt  4  0ENDTAB
  0
TABLE
  2
VIEW
 70
     0
  0
ENDTAB
  0
TABLE
  2
UCS
 70
     0
  0
ENDTAB
  0
TABLE
  2
DWGMGR
 70
     0
  0
ENDTAB
  0
ENDSEC
  0
SECTION
  2
BLOCKS
  0
BLOCK
  8
LAYER1
  2
Group1
 70
     0
 10
0
 20
0
 30
0
  0
LINE
  8
LAYER1
  6
CONTINUOUS
 62
     7
 10
0.2222
 20
10.4861
 30
0
 11
4.7639
 21
10.4861
 31
0
  0
POLYLINE
  8
LAYER1
  6
CONTINUOUS
 62
     7
 66
     1
 70
     0
 40
0.0039
 41
0.0039
  0
VERTEX
  8
LAYER1
 10
3
 20
9.0972
 30
0
 70
     0
  0
VERTEX
  8
LAYER1
 10
2.9609
 20
9.1016
 30
0
 70
     0
  0
VERTEX
  8
LAYER1
 10
2.9271
 20
9.1146
 30
0
 70
     0
  0
VERTEX
  8
LAYER1
 10
2.8984
 20
9.1363
 30
0
 70
     0
  0
VERTEX
  8
LAYER1
 10
2.875
 20
9.1667
 30
0
 70
     0
  0
VERTEX
  8
LAYER1
 10
2.875
 20
9.1667
 30
0
 70
     0
  0
VERTEX
  8
LAYER1
 10
2.8594
 20
9.2014
 30
0
 70
     0
  0
VERTEX
  8
LAYER1
 10
2.8542
 20
9.2361
 30
0
 70
     0
  0
VERTEX
  8
LAYER1
 10
2.8594
 20
9.2708
 30
0
 70
     0
  0
VERTEX
  8
LAYER1
 10
2.875
 20
9.3056
 30
0
 70
     0
  0
VERTEX
  8
LAYER1
 10
2.875
 20
9.3056
 30
0
 70
     0
  0
VERTEX
  8
LAYER1
 10
2.8984
 20
9.3359
 30
0
 70
     0
  0
VERTEX
  8
LAYER1
 10
2.9271
 20
9.3576
 30
0
 70
     0
  0
VERTEX
  8
LAYER1
 10
2.9609
 20
9.3706
 30
0
 70
     0
  0
VERTEX
  8
LAYER1
 10
3
 20
9.375
 30
0
 70
     0
  0
VERTEX
  8
LAYER1
 10
3
 20
9.375
 30
0
 70
     0
  0
VERTEX
  8
LAYER1
 10
3.0386
 20
9.3706
 30
0
 70
     0
  0
VERTEX
  8
LAYER1
 10
3.0712
 20
9.3576
 30
0
 70
     0
  0
VERTEX
  8
LAYER1
 10
3.0977
 20
9.3359
 30
0
 70
     0
  0
VERTEX
  8
LAYER1
 10
3.1181
 20
9.3056
 30
0
 70
     0
  0
VERTEX
  8
LAYER1
 10
3.1181
 20
9.3056
 30
0
 70
     0
  0
VERTEX
  8
LAYER1
 10
3.1311
 20
9.2708
 30
0
 70
     0
  0
VERTEX
  8
LAYER1
 10
3.1354
 20
9.2361
 30
0
 70
     0
  0
VERTEX
  8
LAYER1
 10
3.1311
 20
9.2014
 30
0
 70
     0
  0
VERTEX
  8
LAYER1
 10
3.1181
 20
9.1667
 30
0
 70
     0
  0
VERTEX
  8
LAYER1
 10
3.1181
 20
9.1667
 30
0
 70
     0
  0
VERTEX
  8
LAYER1
 10
3.0977
 20
9.1363
 30
0
 70
     0
  0
VERTEX
  8
LAYER1
 10
3.0712
 20
9.1146
 30
0
 70
     0
  0
VERTEX
  8
LAYER1
 10
3.0386
 20
9.1016
 30
0
 70
     0
  0
VERTEX
  8
LAYER1
 10
3
 20
9.0972
 30
0
 70
     0
  0
SEQEND
  0
ENDBLK
  8
LAYER1
  0
BLOCK
  8
LAYER1
  2
Group2
 70
     0
 10
0
 20
0
 30
0
  0
LINE
  8
LAYER1
  6
CONTINUOUS
 62
     7
 10
2.8333
 20
9.5694
 30
0
 11
3.1528
 21
9.5694
 31
0
  0
POLYLINE
  8
LAYER1
  6
CONTINUOUS
 62
     7
 66
     1
 70
     0
 40
0.0039
 41
0.0039
  0
VERTEX
  8
LAYER1
 10
3.0833
 20
9.5694
 30
0
 70
     0
  0
VERTEX
  8
LAYER1
 10
3.0833
 20
9.5833
 30
0
 70
     0
  0
VERTEX
  8
LAYER1
 10
3.0833
 20
9.5833
 30
0
 70
     0
  0
VERTEX
  8
LAYER1
 10
3.1111
 20
9.5972
 30
0
 70
     0
  0
VERTEX
  8
LAYER1
 10
3.125
 20
9.5972
 30
0
 70
     0
  0
VERTEX
  8
LAYER1
 10
3.1389
 20
9.5972
 30
0
 70
     0
  0
VERTEX
  8
LAYER1
 10
3.1528
 20
9.5833
 30
0
 70
     0
  0
VERTEX
  8
LAYER1
 10
3.1528
 20
9.5833
 30
0
 70
     0
  0
VERTEX
  8
LAYER1
 10
3.1528
 20
9.5694
 30
0
 70
     0
  0
SEQEND
  0
POLYLINE
  8
LAYER1
  6
CONTINUOUS
 62
     7
 66
     1
 70
     0
 40
0.0039
 41
0.0039
  0
VERTEX
  8
LAYER1
 10
2.8333
 20
9.5694
 30
0
 70
     0
  0
VERTEX
  8
LAYER1
 10
2.8333
 20
9.5694
 30
0
 70
     0
  0
VERTEX
  8
LAYER1
 10
2.8472
 20
9.5833
 30
0
 70
     0
  0
VERTEX
  8
LAYER1
 10
2.8472
 20
9.5833
 30
0
 70
     0
  0
VERTEX
  8
LAYER1
 10
2.8472
 20
9.5833
 30
0
 70
     0
  0
VERTEX
  8
LAYER1
 10
2.875
 20
9.5972
 30
0
 70
     0
  0
VERTEX
  8
LAYER1
 10
2.875
 20
9.5972
 30
0
 70
     0
  0
VERTEX
  8
LAYER1
 10
2.8889
 20
9.5972
 30
0
 70
     0
  0
VERTEX
  8
LAYER1
 10
2.9028
 20
9.5833
 30
0
 70
     0
  0
VERTEX
  8
LAYER1
 10
2.9028
 20
9.5833
 30
0
 70
     0
  0
VERTEX
  8
LAYER1
 10
2.9167
 20
9.5833
 30
0
 70
     0
  0
VERTEX
  8
LAYER1
 10
2.9167
 20
9.5694
 30
0
 70
     0
  0
VERTEX
  8
LAYER1
 10
2.9167
 20
9.5694
 30
0
 70
     0
  0
SEQEND
  0
POLYLINE
  8
LAYER1
  6
CONTINUOUS
 62
     7
 66
     1
 70
     0
 40
0.0039
 41
0.0039
  0
VERTEX
  8
LAYER1
 10
2.9167
 20
9.5694
 30
0
 70
     0
  0
VERTEX
  8
LAYER1
 10
2.9306
 20
9.5833
 30
0
 70
     0
  0
VERTEX
  8
LAYER1
 10
2.9722
 20
9.5972
 30
0
 70
     0
  0
VERTEX
  8
LAYER1
 10
3
 20
9.5972
 30
0
 70
     0
  0
VERTEX
  8
LAYER1
 10
3.0278
 20
9.5972
 30
0
 70
     0
  0
VERTEX
  8
LAYER1
 10
3.0694
 20
9.5833
 30
0
 70
     0
  0
VERTEX
  8
LAYER1
 10
3.0833
 20
9.5694
 30
0
 70
     0
  0
SEQEND
  0
LINE
  8
LAYER1
  6
CONTINUOUS
 62
     7
 10
2.9167
 20
9.4444
 30
0
 11
2.9167
 21
9.5694
 31
0
  0
LINE
  8
LAYER1
  6
CONTINUOUS
 62
     7
 10
3.0833
 20
9.4444
 30
0
 11
3.0833
 21
9.5694
 31
0
  0
LINE
  8
LAYER1
  6
CONTINUOUS
 62
     7
 10
2.875
 20
9.5972
 30
0
 11
3.1111
 21
9.5972
 31
0
  0
ENDBLK
  8
LAYER1
  0
BLOCK
  8
LAYER1
  2
Group3
 70
     0
 10
0
 20
0
 30
0
  0
POLYLINE
  8
LAYER1
  6
CONTINUOUS
 62
     7
 66
     1
 70
     0
 40
0.0039
 41
0.0039
  0
VERTEX
  8
LAYER1
 10
3.1528
 20
9.5694
 30
0
 70
     0
  0
VERTEX
  8
LAYER1
 10
3.1528
 20
9.4444
 30
0
 70
     0
  0
VERTEX
  8
LAYER1
 10
2.8333
 20
9.4444
 30
0
 70
     0
  0
VERTEX
  8
LAYER1
 10
2.8333
 20
9.5694
 30
0
 70
     0
  0
SEQEND
  0
POLYLINE
  8
LAYER1
  6
CONTINUOUS
 62
     7
 66
     1
 70
     0
 40
0.0039
 41
0.0039
  0
VERTEX
  8
LAYER1
 10
2.9931
 20
7.3333
 30
0
 70
     0
  0
VERTEX
  8
LAYER1
 10
2.9505
 20
7.3381
 30
0
 70
     0
  0
VERTEX
  8
LAYER1
 10
2.9132
 20
7.3524
 30
0
 70
     0
  0
VERTEX
  8
LAYER1
 10
2.8811
 20
7.3763
 30
0
 70
     0
  0
VERTEX
  8
LAYER1
 10
2.8542
 20
7.4097
 30
0
 70
     0
  0
VERTEX
  8
LAYER1
 10
2.8542
 20
7.4097
 30
0
 70
     0
  0
VERTEX
  8
LAYER1
 10
2.8359
 20
7.4483
 30
0
 70
     0
  0
VERTEX
  8
LAYER1
 10
2.8299
 20
7.4878
 30
0
 70
     0
  0
VERTEX
  8
LAYER1
 10
2.8359
 20
7.5282
 30
0
 70
     0
  0
VERTEX
  8
LAYER1
 10
2.8542
 20
7.5694
 30
0
 70
     0
  0
VERTEX
  8
LAYER1
 10
2.8542
 20
7.5694
 30
0
 70
     0
  0
VERTEX
  8
LAYER1
 10
2.8811
 20
7.6059
 30
0
 70
     0
  0
VERTEX
  8
LAYER1
 10
2.9132
 20
7.6319
 30
0
 70
     0
  0
VERTEX
  8
LAYER1
 10
2.9505
 20
7.6476
 30
0
 70
     0
  0
VERTEX
  8
LAYER1
 10
2.9931
 20
7.6528
 30
0
 70
     0
  0
VERTEX
  8
LAYER1
 10
2.9931
 20
7.6528
 30
0
 70
     0
  0
VERTEX
  8
LAYER1
 10
3.0356
 20
7.6476
 30
0
 70
     0
  0
VERTEX
  8
LAYER1
 10
3.0729
 20
7.6319
 30
0
 70
     0
  0
VERTEX
  8
LAYER1
 10
3.105
 20
7.6059
 30
0
 70
     0
  0
VERTEX
  8
LAYER1
 10
3.1319
 20
7.5694
 30
0
 70
     0
  0
VERTEX
  8
LAYER1
 10
3.1319
 20
7.5694
 30
0
 70
     0
  0
VERTEX
  8
LAYER1
 10
3.1502
 20
7.5282
 30
0
 70
     0
  0
VERTEX
  8
LAYER1
 10
3.1562
 20
7.4878
 30
0
 70
     0
  0
VERTEX
  8
LAYER1
 10
3.1502
 20
7.4483
 30
0
 70
     0
  0
VERTEX
  8
LAYER1
 10
3.1319
 20
7.4097
 30
0
 70
     0
  0
VERTEX
  8
LAYER1
 10
3.1319
 20
7.4097
 30
0
 70
     0
  0
VERTEX
  8
LAYER1
 10
3.105
 20
7.3763
 30
0
 70
     0
  0
VERTEX
  8
LAYER1
 10
3.0729
 20
7.3524
 30
0
 70
     0
  0
VERTEX
  8
LAYER1
 10
3.0356
 20
7.3381
 30
0
 70
     0
  0
VERTEX
  8
LAYER1
 10
2.9931
 20
7.3333
 30
0
 70
     0
  0
SEQEND
  0
CIRCLE
  8
LAYER1
 10
3
 20
7.4861
 30
0
 40
0.1667
  0
CIRCLE
  8
LAYER1
 10
2.9931
 20
7.4792
 30
0
 40
0.1042
  0
ENDBLK
  8
LAYER1
  0
BLOCK
  8
LAYER1
  2
Group4
 70
     0
 10
0
 20
0
 30
0
  0
LINE
  8
LAYER1
  6
CONTINUOUS
 62
     7
 10
2.8056
 20
7.8472
 30
0
 11
3.1806
 21
7.8472
 31
0
  0
POLYLINE
  8
LAYER1
  6
CONTINUOUS
 62
     7
 66
     1
 70
     0
 40
0.0039
 41
0.0039
  0
VERTEX
  8
LAYER1
 10
2.8056
 20
7.8472
 30
0
 70
     0
  0
VERTEX
  8
LAYER1
 10
2.8056
 20
7.8472
 30
0
 70
     0
  0
VERTEX
  8
LAYER1
 10
2.8194
 20
7.8611
 30
0
 70
     0
  0
VERTEX
  8
LAYER1
 10
2.8194
 20
7.875
 30
0
 70
     0
  0
VERTEX
  8
LAYER1
 10
2.8194
 20
7.875
 30
0
 70
     0
  0
VERTEX
  8
LAYER1
 10
2.8472
 20
7.8889
 30
0
 70
     0
  0
VERTEX
  8
LAYER1
 10
2.8611
 20
7.8889
 30
0
 70
     0
  0
VERTEX
  8
LAYER1
 10
2.875
 20
7.8889
 30
0
 70
     0
  0
VERTEX
  8
LAYER1
 10
2.8889
 20
7.875
 30
0
 70
     0
  0
VERTEX
  8
LAYER1
 10
2.8889
 20
7.875
 30
0
 70
     0
  0
VERTEX
  8
LAYER1
 10
2.9028
 20
7.8611
 30
0
 70
     0
  0
VERTEX
  8
LAYER1
 10
2.9028
 20
7.8472
 30
0
 70
     0
  0
VERTEX
  8
LAYER1
 10
2.9028
 20
7.8472
 30
0
 70
     0
  0
SEQEND
  0
POLYLINE
  8
LAYER1
  6
CONTINUOUS
 62
     7
 66
     1
 70
     0
 40
0.0039
 41
0.0039
  0
VERTEX
  8
LAYER1
 10
2.9028
 20
7.8472
 30
0
 70
     0
  0
VERTEX
  8
LAYER1
 10
2.9167
 20
7.8611
 30
0
 70
     0
  0
VERTEX
  8
LAYER1
 10
2.9444
 20
7.875
 30
0
 70
     0
  0
VERTEX
  8
LAYER1
 10
2.9722
 20
7.8889
 30
0
 70
     0
  0
VERTEX
  8
LAYER1
 10
2.9861
 20
7.8889
 30
0
 70
     0
  0
VERTEX
  8
LAYER1
 10
3
 20
7.8889
 30
0
 70
     0
  0
VERTEX
  8
LAYER1
 10
3.0139
 20
7.8889
 30
0
 70
     0
  0
VERTEX
  8
LAYER1
 10
3.0278
 20
7.8889
 30
0
 70
     0
  0
VERTEX
  8
LAYER1
 10
3.0417
 20
7.875
 30
0
 70
     0
  0
VERTEX
  8
LAYER1
 10
3.0694
 20
7.8611
 30
0
 70
     0
  0
VERTEX
  8
LAYER1
 10
3.0833
 20
7.8472
 30
0
 70
     0
  0
SEQEND
  0
POLYLINE
  8
LAYER1
  6
CONTINUOUS
 62
     7
 66
     1
 70
     0
 40
0.0039
 41
0.0039
  0
VERTEX
  8
LAYER1
 10
3.0833
 20
7.8472
 30
0
 70
     0
  0
VERTEX
  8
LAYER1
 10
3.0833
 20
7.8472
 30
0
 70
     0
  0
VERTEX
  8
LAYER1
 10
3.0972
 20
7.875
 30
0
 70
     0
  0
VERTEX
  8
LAYER1
 10
3.0972
 20
7.875
 30
0
 70
     0
  0
VERTEX
  8
LAYER1
 10
3.0972
 20
7.875
 30
0
 70
     0
  0
VERTEX
  8
LAYER1
 10
3.125
 20
7.8889
 30
0
 70
     0
  0
VERTEX
  8
LAYER1
 10
3.125
 20
7.8889
 30
0
 70
     0
  0
VERTEX
  8
LAYER1
 10
3.1389
 20
7.8889
 30
0
 70
     0
  0
VERTEX
  8
LAYER1
 10
3.1667
 20
7.875
 30
0
 70
     0
  0
VERTEX
  8
LAYER1
 10
3.1667
 20
7.875
 30
0
 70
     0
  0
VERTEX
  8
LAYER1
 10
3.1667
 20
7.8611
 30
0
 70
     0
  0
VERTEX
  8
LAYER1
 10
3.1806
 20
7.8472
 30
0
 70
     0
  0
VERTEX
  8
LAYER1
 10
3.1806
 20
7.8472
 30
0
 70
     0
  0
SEQEND
  0
LINE
  8
LAYER1
  6
CONTINUOUS
 62
     7
 10
3.0833
 20
7.6944
 30
0
 11
3.0833
 21
7.8472
 31
0
  0
LINE
  8
LAYER1
  6
CONTINUOUS
 62
     7
 10
2.9028
 20
7.6944
 30
0
 11
2.9028
 21
7.8472
 31
0
  0
LINE
  8
LAYER1
  6
CONTINUOUS
 62
     7
 10
2.8611
 20
7.8889
 30
0
 11
3.125
 21
7.8889
 31
0
  0
ENDBLK
  8
LAYER1
  0
BLOCK
  8
LAYER1
  2
Group5
 70
     0
 10
0
 20
0
 30
0
  0
POLYLINE
  8
LAYER1
  6
CONTINUOUS
 62
     7
 66
     1
 70
     0
 40
0.0039
 41
0.0039
  0
VERTEX
  8
LAYER1
 10
3.1806
 20
7.8472
 30
0
 70
     0
  0
VERTEX
  8
LAYER1
 10
3.1806
 20
7.6944
 30
0
 70
     0
  0
VERTEX
  8
LAYER1
 10
2.8056
 20
7.6944
 30
0
 70
     0
  0
VERTEX
  8
LAYER1
 10
2.8056
 20
7.8472
 30
0
 70
     0
  0
SEQEND
  0
POLYLINE
  8
LAYER1
  6
CONTINUOUS
 62
     7
 66
     1
 70
     0
 40
0.0039
 41
0.0039
  0
VERTEX
  8
LAYER1
 10
2.9931
 20
5.5139
 30
0
 70
     0
  0
VERTEX
  8
LAYER1
 10
2.9379
 20
5.52
 30
0
 70
     0
  0
VERTEX
  8
LAYER1
 10
2.8906
 20
5.5382
 30
0
 70
     0
  0
VERTEX
  8
LAYER1
 10
2.8511
 20
5.5686
 30
0
 70
     0
  0
VERTEX
  8
LAYER1
 10
2.8194
 20
5.6111
 30
0
 70
     0
  0
VERTEX
  8
LAYER1
 10
2.8194
 20
5.6111
 30
0
 70
     0
  0
VERTEX
  8
LAYER1
 10
2.7986
 20
5.6597
 30
0
 70
     0
  0
VERTEX
  8
LAYER1
 10
2.7917
 20
5.7083
 30
0
 70
     0
  0
VERTEX
  8
LAYER1
 10
2.7986
 20
5.7569
 30
0
 70
     0
  0
VERTEX
  8
LAYER1
 10
2.8194
 20
5.8056
 30
0
 70
     0
  0
VERTEX
  8
LAYER1
 10
2.8194
 20
5.8056
 30
0
 70
     0
  0
VERTEX
  8
LAYER1
 10
2.8511
 20
5.8481
 30
0
 70
     0
  0
VERTEX
  8
LAYER1
 10
2.8906
 20
5.8785
 30
0
 70
     0
  0
VERTEX
  8
LAYER1
 10
2.9379
 20
5.8967
 30
0
 70
     0
  0
VERTEX
  8
LAYER1
 10
2.9931
 20
5.9028
 30
0
 70
     0
  0
VERTEX
  8
LAYER1
 10
2.9931
 20
5.9028
 30
0
 70
     0
  0
VERTEX
  8
LAYER1
 10
3.0482
 20
5.8967
 30
0
 70
     0
  0
VERTEX
  8
LAYER1
 10
3.0955
 20
5.8785
 30
0
 70
     0
  0
VERTEX
  8
LAYER1
 10
3.135
 20
5.8481
 30
0
 70
     0
  0
VERTEX
  8
LAYER1
 10
3.1667
 20
5.8056
 30
0
 70
     0
  0
VERTEX
  8
LAYER1
 10
3.1667
 20
5.8056
 30
0
 70
     0
  0
VERTEX
  8
LAYER1
 10
3.1875
 20
5.7569
 30
0
 70
     0
  0
VERTEX
  8
LAYER1
 10
3.1944
 20
5.7083
 30
0
 70
     0
  0
VERTEX
  8
LAYER1
 10
3.1875
 20
5.6597
 30
0
 70
     0
  0
VERTEX
  8
LAYER1
 10
3.1667
 20
5.6111
 30
0
 70
     0
  0
VERTEX
  8
LAYER1
 10
3.1667
 20
5.6111
 30
0
 70
     0
  0
VERTEX
  8
LAYER1
 10
3.135
 20
5.5686
 30
0
 70
     0
  0
VERTEX
  8
LAYER1
 10
3.0955
 20
5.5382
 30
0
 70
     0
  0
VERTEX
  8
LAYER1
 10
3.0482
 20
5.52
 30
0
 70
     0
  0
VERTEX
  8
LAYER1
 10
2.9931
 20
5.5139
 30
0
 70
     0
  0
SEQEND
  0
CIRCLE
  8
LAYER1
 10
2.9931
 20
5.7014
 30
0
 40
0.2014
  0
CIRCLE
  8
LAYER1
 10
3
 20
5.6944
 30
0
 40
0.125
  0
ENDBLK
  8
LAYER1
  0
BLOCK
  8
LAYER1
  2
Group6
 70
     0
 10
0
 20
0
 30
0
  0
LINE
  8
LAYER1
  6
CONTINUOUS
 62
     7
 10
2.7639
 20
6.1389
 30
0
 11
3.2222
 21
6.1389
 31
0
  0
POLYLINE
  8
LAYER1
  6
CONTINUOUS
 62
     7
 66
     1
 70
     0
 40
0.0039
 41
0.0039
  0
VERTEX
  8
LAYER1
 10
2.7639
 20
6.1389
 30
0
 70
     0
  0
VERTEX
  8
LAYER1
 10
2.7639
 20
6.1389
 30
0
 70
     0
  0
VERTEX
  8
LAYER1
 10
2.7778
 20
6.1528
 30
0
 70
     0
  0
VERTEX
  8
LAYER1
 10
2.7778
 20
6.1667
 30
0
 70
     0
  0
VERTEX
  8
LAYER1
 10
2.7917
 20
6.1667
 30
0
 70
     0
  0
VERTEX
  8
LAYER1
 10
2.8194
 20
6.1806
 30
0
 70
     0
  0
VERTEX
  8
LAYER1
 10
2.8194
 20
6.1806
 30
0
 70
     0
  0
VERTEX
  8
LAYER1
 10
2.8333
 20
6.1806
 30
0
 70
     0
  0
VERTEX
  8
LAYER1
 10
2.8611
 20
6.1667
 30
0
 70
     0
  0
VERTEX
  8
LAYER1
 10
2.8611
 20
6.1667
 30
0
 70
     0
  0
VERTEX
  8
LAYER1
 10
2.875
 20
6.1528
 30
0
 70
     0
  0
VERTEX
  8
LAYER1
 10
2.875
 20
6.1389
 30
0
 70
     0
  0
VERTEX
  8
LAYER1
 10
2.875
 20
6.1389
 30
0
 70
     0
  0
SEQEND
  0
POLYLINE
  8
LAYER1
  6
CONTINUOUS
 62
     7
 66
     1
 70
     0
 40
0.0039
 41
0.0039
  0
VERTEX
  8
LAYER1
 10
2.875
 20
6.1389
 30
0
 70
     0
  0
VERTEX
  8
LAYER1
 10
2.8889
 20
6.1528
 30
0
 70
     0
  0
VERTEX
  8
LAYER1
 10
2.9306
 20
6.1667
 30
0
 70
     0
  0
VERTEX
  8
LAYER1
 10
2.9583
 20
6.1806
 30
0
 70
     0
  0
VERTEX
  8
LAYER1
 10
2.9861
 20
6.1806
 30
0
 70
     0
  0
VERTEX
  8
LAYER1
 10
3
 20
6.1806
 30
0
 70
     0
  0
VERTEX
  8
LAYER1
 10
3.0139
 20
6.1806
 30
0
 70
     0
  0
VERTEX
  8
LAYER1
 10
3.0417
 20
6.1806
 30
0
 70
     0
  0
VERTEX
  8
LAYER1
 10
3.0694
 20
6.1667
 30
0
 70
     0
  0
VERTEX
  8
LAYER1
 10
3.0972
 20
6.1528
 30
0
 70
     0
  0
VERTEX
  8
LAYER1
 10
3.1111
 20
6.1389
 30
0
 70
     0
  0
SEQEND
  0
POLYLINE
  8
LAYER1
  6
CONTINUOUS
 62
     7
 66
     1
 70
     0
 40
0.0039
 41
0.0039
  0
VERTEX
  8
LAYER1
 10
3.1111
 20
6.1389
 30
0
 70
     0
  0
VERTEX
  8
LAYER1
 10
3.1111
 20
6.1389
 30
0
 70
     0
  0
VERTEX
  8
LAYER1
 10
3.125
 20
6.1667
 30
0
 70
     0
  0
VERTEX
  8
LAYER1
 10
3.125
 20
6.1667
 30
0
 70
     0
  0
VERTEX
  8
LAYER1
 10
3.125
 20
6.1667
 30
0
 70
     0
  0
VERTEX
  8
LAYER1
 10
3.1528
 20
6.1806
 30
0
 70
     0
  0
VERTEX
  8
LAYER1
 10
3.1667
 20
6.1806
 30
0
 70
     0
  0
VERTEX
  8
LAYER1
 10
3.1806
 20
6.1806
 30
0
 70
     0
  0
VERTEX
  8
LAYER1
 10
3.2083
 20
6.1667
 30
0
 70
     0
  0
VERTEX
  8
LAYER1
 10
3.2083
 20
6.1667
 30
0
 70
     0
  0
VERTEX
  8
LAYER1
 10
3.2222
 20
6.1528
 30
0
 70
     0
  0
VERTEX
  8
LAYER1
 10
3.2222
 20
6.1389
 30
0
 70
     0
  0
VERTEX
  8
LAYER1
 10
3.2222
 20
6.1389
 30
0
 70
     0
  0
SEQEND
  0
LINE
  8
LAYER1
  6
CONTINUOUS
 62
     7
 10
3.1111
 20
5.9444
 30
0
 11
3.1111
 21
6.1389
 31
0
  0
LINE
  8
LAYER1
  6
CONTINUOUS
 62
     7
 10
2.875
 20
5.9444
 30
0
 11
2.875
 21
6.1389
 31
0
  0
LINE
  8
LAYER1
  6
CONTINUOUS
 62
     7
 10
2.8194
 20
6.1806
 30
0
 11
3.1667
 21
6.1806
 31
0
  0
ENDBLK
  8
LAYER1
  0
BLOCK
  8
LAYER1
  2
Group7
 70
     0
 10
0
 20
0
 30
0
  0
POLYLINE
  8
LAYER1
  6
CONTINUOUS
 62
     7
 66
     1
 70
     0
 40
0.0039
 41
0.0039
  0
VERTEX
  8
LAYER1
 10
3.2222
 20
6.1389
 30
0
 70
     0
  0
VERTEX
  8
LAYER1
 10
3.2222
 20
5.9444
 30
0
 70
     0
  0
VERTEX
  8
LAYER1
 10
2.7639
 20
5.9444
 30
0
 70
     0
  0
VERTEX
  8
LAYER1
 10
2.7639
 20
6.1389
 30
0
 70
     0
  0
SEQEND
  0
POLYLINE
  8
LAYER1
  6
CONTINUOUS
 62
     7
 66
     1
 70
     0
 40
0.0039
 41
0.0039
  0
VERTEX
  8
LAYER1
 10
3
 20
3.5417
 30
0
 70
     0
  0
VERTEX
  8
LAYER1
 10
2.9288
 20
3.5499
 30
0
 70
     0
  0
VERTEX
  8
LAYER1
 10
2.8681
 20
3.5746
 30
0
 70
     0
  0
VERTEX
  8
LAYER1
 10
2.8177
 20
3.6159
 30
0
 70
     0
  0
VERTEX
  8
LAYER1
 10
2.7778
 20
3.6736
 30
0
 70
     0
  0
VERTEX
  8
LAYER1
 10
2.7778
 20
3.6736
 30
0
 70
     0
  0
VERTEX
  8
LAYER1
 10
2.7517
 20
3.7391
 30
0
 70
     0
  0
VERTEX
  8
LAYER1
 10
2.7431
 20
3.8038
 30
0
 70
     0
  0
VERTEX
  8
LAYER1
 10
2.7517
 20
3.8676
 30
0
 70
     0
  0
VERTEX
  8
LAYER1
 10
2.7778
 20
3.9306
 30
0
 70
     0
  0
VERTEX
  8
LAYER1
 10
2.7778
 20
3.9306
 30
0
 70
     0
  0
VERTEX
  8
LAYER1
 10
2.8177
 20
3.9852
 30
0
 70
     0
  0
VERTEX
  8
LAYER1
 10
2.8681
 20
4.0243
 30
0
 70
     0
  0
VERTEX
  8
LAYER1
 10
2.9288
 20
4.0477
 30
0
 70
     0
  0
VERTEX
  8
LAYER1
 10
3
 20
4.0556
 30
0
 70
     0
  0
VERTEX
  8
LAYER1
 10
3
 20
4.0556
 30
0
 70
     0
  0
VERTEX
  8
LAYER1
 10
3.0712
 20
4.0477
 30
0
 70
     0
  0
VERTEX
  8
LAYER1
 10
3.1319
 20
4.0243
 30
0
 70
     0
  0
VERTEX
  8
LAYER1
 10
3.1823
 20
3.9852
 30
0
 70
     0
  0
VERTEX
  8
LAYER1
 10
3.2222
 20
3.9306
 30
0
 70
     0
  0
VERTEX
  8
LAYER1
 10
3.2222
 20
3.9306
 30
0
 70
     0
  0
VERTEX
  8
LAYER1
 10
3.2483
 20
3.8676
 30
0
 70
     0
  0
VERTEX
  8
LAYER1
 10
3.2569
 20
3.8038
 30
0
 70
     0
  0
VERTEX
  8
LAYER1
 10
3.2483
 20
3.7391
 30
0
 70
     0
  0
VERTEX
  8
LAYER1
 10
3.2222
 20
3.6736
 30
0
 70
     0
  0
VERTEX
  8
LAYER1
 10
3.2222
 20
3.6736
 30
0
 70
     0
  0
VERTEX
  8
LAYER1
 10
3.1823
 20
3.6159
 30
0
 70
     0
  0
VERTEX
  8
LAYER1
 10
3.1319
 20
3.5746
 30
0
 70
     0
  0
VERTEX
  8
LAYER1
 10
3.0712
 20
3.5499
 30
0
 70
     0
  0
VERTEX
  8
LAYER1
 10
3
 20
3.5417
 30
0
 70
     0
  0
SEQEND
  0
CIRCLE
  8
LAYER1
 10
3.0139
 20
3.7917
 30
0
 40
0.2639
  0
CIRCLE
  8
LAYER1
 10
3.0139
 20
3.7917
 30
0
 40
0.1667
  0
ENDBLK
  8
LAYER1
  0
BLOCK
  8
LAYER1
  2
Group8
 70
     0
 10
0
 20
0
 30
0
  0
LINE
  8
LAYER1
  6
CONTINUOUS
 62
     7
 10
2.7083
 20
4.3889
 30
0
 11
3.2917
 21
4.3889
 31
0
  0
POLYLINE
  8
LAYER1
  6
CONTINUOUS
 62
     7
 66
     1
 70
     0
 40
0.0039
 41
0.0039
  0
VERTEX
  8
LAYER1
 10
3.1528
 20
4.3889
 30
0
 70
     0
  0
VERTEX
  8
LAYER1
 10
3.1667
 20
4.4028
 30
0
 70
     0
  0
VERTEX
  8
LAYER1
 10
3.1806
 20
4.4167
 30
0
 70
     0
  0
VERTEX
  8
LAYER1
 10
3.2083
 20
4.4306
 30
0
 70
     0
  0
VERTEX
  8
LAYER1
 10
3.2222
 20
4.4306
 30
0
 70
     0
  0
VERTEX
  8
LAYER1
 10
3.2361
 20
4.4306
 30
0
 70
     0
  0
VERTEX
  8
LAYER1
 10
3.2639
 20
4.4167
 30
0
 70
     0
  0
VERTEX
  8
LAYER1
 10
3.2778
 20
4.4028
 30
0
 70
     0
  0
VERTEX
  8
LAYER1
 10
3.2917
 20
4.3889
 30
0
 70
     0
  0
SEQEND
  0
POLYLINE
  8
LAYER1
  6
CONTINUOUS
 62
     7
 66
     1
 70
     0
 40
0.0039
 41
0.0039
  0
VERTEX
  8
LAYER1
 10
2.8472
 20
4.3889
 30
0
 70
     0
  0
VERTEX
  8
LAYER1
 10
2.875
 20
4.4028
 30
0
 70
     0
  0
VERTEX
  8
LAYER1
 10
2.9028
 20
4.4167
 30
0
 70
     0
  0
VERTEX
  8
LAYER1
 10
2.9444
 20
4.4306
 30
0
 70
     0
  0
VERTEX
  8
LAYER1
 10
2.9861
 20
4.4306
 30
0
 70
     0
  0
VERTEX
  8
LAYER1
 10
3
 20
4.4306
 30
0
 70
     0
  0
VERTEX
  8
LAYER1
 10
3.0278
 20
4.4306
 30
0
 70
     0
  0
VERTEX
  8
LAYER1
 10
3.0556
 20
4.4306
 30
0
 70
     0
  0
VERTEX
  8
LAYER1
 10
3.0972
 20
4.4167
 30
0
 70
     0
  0
VERTEX
  8
LAYER1
 10
3.125
 20
4.4028
 30
0
 70
     0
  0
VERTEX
  8
LAYER1
 10
3.1528
 20
4.3889
 30
0
 70
     0
  0
SEQEND
  0
POLYLINE
  8
LAYER1
  6
CONTINUOUS
 62
     7
 66
     1
 70
     0
 40
0.0039
 41
0.0039
  0
VERTEX
  8
LAYER1
 10
2.7083
 20
4.3889
 30
0
 70
     0
  0
VERTEX
  8
LAYER1
 10
2.7222
 20
4.4028
 30
0
 70
     0
  0
VERTEX
  8
LAYER1
 10
2.7361
 20
4.4167
 30
0
 70
     0
  0
VERTEX
  8
LAYER1
 10
2.7639
 20
4.4306
 30
0
 70
     0
  0
VERTEX
  8
LAYER1
 10
2.7778
 20
4.4306
 30
0
 70
     0
  0
VERTEX
  8
LAYER1
 10
2.7917
 20
4.4306
 30
0
 70
     0
  0
VERTEX
  8
LAYER1
 10
2.8194
 20
4.4167
 30
0
 70
     0
  0
VERTEX
  8
LAYER1
 10
2.8333
 20
4.4028
 30
0
 70
     0
  0
VERTEX
  8
LAYER1
 10
2.8472
 20
4.3889
 30
0
 70
     0
  0
SEQEND
  0
LINE
  8
LAYER1
  6
CONTINUOUS
 62
     7
 10
2.7778
 20
4.4306
 30
0
 11
3.2222
 21
4.4306
 31
0
  0
POLYLINE
  8
LAYER1
  6
CONTINUOUS
 62
     7
 66
     1
 70
     0
 40
0.0039
 41
0.0039
  0
VERTEX
  8
LAYER1
 10
3.2917
 20
4.3889
 30
0
 70
     0
  0
VERTEX
  8
LAYER1
 10
3.2917
 20
4.1111
 30
0
 70
     0
  0
VERTEX
  8
LAYER1
 10
2.7083
 20
4.1111
 30
0
 70
     0
  0
VERTEX
  8
LAYER1
 10
2.7083
 20
4.3889
 30
0
 70
     0
  0
SEQEND
  0
LINE
  8
LAYER1
  6
CONTINUOUS
 62
     7
 10
2.8472
 20
4.1111
 30
0
 11
2.8472
 21
4.3889
 31
0
  0
ENDBLK
  8
LAYER1
  0
BLOCK
  8
LAYER1
  2
Group9
 70
     0
 10
0
 20
0
 30
0
  0
LINE
  8
LAYER1
  6
CONTINUOUS
 62
     7
 10
3.1528
 20
4.1111
 30
0
 11
3.1528
 21
4.3889
 31
0
  0
POLYLINE
  8
LAYER1
  6
CONTINUOUS
 62
     7
 66
     1
 70
     0
 40
0.0039
 41
0.0039
  0
VERTEX
  8
LAYER1
 10
3
 20
1.2222
 30
0
 70
     0
  0
VERTEX
  8
LAYER1
 10
2.9093
 20
1.2331
 30
0
 70
     0
  0
VERTEX
  8
LAYER1
 10
2.8316
 20
1.2656
 30
0
 70
     0
  0
VERTEX
  8
LAYER1
 10
2.7669
 20
1.3199
 30
0
 70
     0
  0
VERTEX
  8
LAYER1
 10
2.7153
 20
1.3958
 30
0
 70
     0
  0
VERTEX
  8
LAYER1
 10
2.7153
 20
1.3958
 30
0
 70
     0
  0
VERTEX
  8
LAYER1
 10
2.6814
 20
1.4822
 30
0
 70
     0
  0
VERTEX
  8
LAYER1
 10
2.6701
 20
1.5677
 30
0
 70
     0
  0
VERTEX
  8
LAYER1
 10
2.6814
 20
1.6523
 30
0
 70
     0
  0
VERTEX
  8
LAYER1
 10
2.7153
 20
1.7361
 30
0
 70
     0
  0
VERTEX
  8
LAYER1
 10
2.7153
 20
1.7361
 30
0
 70
     0
  0
VERTEX
  8
LAYER1
 10
2.7669
 20
1.809
 30
0
 70
     0
  0
VERTEX
  8
LAYER1
 10
2.8316
 20
1.8611
 30
0
 70
     0
  0
VERTEX
  8
LAYER1
 10
2.9093
 20
1.8924
 30
0
 70
     0
  0
VERTEX
  8
LAYER1
 10
3
 20
1.9028
 30
0
 70
     0
  0
VERTEX
  8
LAYER1
 10
3
 20
1.9028
 30
0
 70
     0
  0
VERTEX
  8
LAYER1
 10
3.0911
 20
1.8924
 30
0
 70
     0
  0
VERTEX
  8
LAYER1
 10
3.1701
 20
1.8611
 30
0
 70
     0
  0
VERTEX
  8
LAYER1
 10
3.237
 20
1.809
 30
0
 70
     0
  0
VERTEX
  8
LAYER1
 10
3.2917
 20
1.7361
 30
0
 70
     0
  0
VERTEX
  8
LAYER1
 10
3.2917
 20
1.7361
 30
0
 70
     0
  0
VERTEX
  8
LAYER1
 10
3.3281
 20
1.6523
 30
0
 70
     0
  0
VERTEX
  8
LAYER1
 10
3.3403
 20
1.5677
 30
0
 70
     0
  0
VERTEX
  8
LAYER1
 10
3.3281
 20
1.4822
 30
0
 70
     0
  0
VERTEX
  8
LAYER1
 10
3.2917
 20
1.3958
 30
0
 70
     0
  0
VERTEX
  8
LAYER1
 10
3.2917
 20
1.3958
 30
0
 70
     0
  0
VERTEX
  8
LAYER1
 10
3.237
 20
1.3199
 30
0
 70
     0
  0
VERTEX
  8
LAYER1
 10
3.1701
 20
1.2656
 30
0
 70
     0
  0
VERTEX
  8
LAYER1
 10
3.0911
 20
1.2331
 30
0
 70
     0
  0
VERTEX
  8
LAYER1
 10
3
 20
1.2222
 30
0
 70
     0
  0
SEQEND
  0
CIRCLE
  8
LAYER1
 10
3.0069
 20
1.5625
 30
0
 40
0.3403
  0
CIRCLE
  8
LAYER1
 10
3.0069
 20
1.5625
 30
0
 40
0.2014
  0
ENDBLK
  8
LAYER1
  0
BLOCK
  8
LAYER1
  2
Group10
 70
     0
 10
0
 20
0
 30
0
  0
LINE
  8
LAYER1
  6
CONTINUOUS
 62
     7
 10
2.625
 20
2.3194
 30
0
 11
3.3889
 21
2.3194
 31
0
  0
POLYLINE
  8
LAYER1
  6
CONTINUOUS
 62
     7
 66
     1
 70
     0
 40
0.0039
 41
0.0039
  0
VERTEX
  8
LAYER1
 10
3.1944
 20
2.3194
 30
0
 70
     0
  0
VERTEX
  8
LAYER1
 10
3.2083
 20
2.3333
 30
0
 70
     0
  0
VERTEX
  8
LAYER1
 10
3.2222
 20
2.3472
 30
0
 70
     0
  0
VERTEX
  8
LAYER1
 10
3.25
 20
2.3611
 30
0
 70
     0
  0
VERTEX
  8
LAYER1
 10
3.2639
 20
2.375
 30
0
 70
     0
  0
VERTEX
  8
LAYER1
 10
3.2778
 20
2.375
 30
0
 70
     0
  0
VERTEX
  8
LAYER1
 10
3.2917
 20
2.375
 30
0
 70
     0
  0
VERTEX
  8
LAYER1
 10
3.3056
 20
2.375
 30
0
 70
     0
  0
VERTEX
  8
LAYER1
 10
3.3194
 20
2.375
 30
0
 70
     0
  0
VERTEX
  8
LAYER1
 10
3.3472
 20
2.3611
 30
0
 70
     0
  0
VERTEX
  8
LAYER1
 10
3.3611
 20
2.3472
 30
0
 70
     0
  0
VERTEX
  8
LAYER1
 10
3.375
 20
2.3333
 30
0
 70
     0
  0
VERTEX
  8
LAYER1
 10
3.3889
 20
2.3333
 30
0
 70
     0
  0
VERTEX
  8
LAYER1
 10
3.3889
 20
2.3194
 30
0
 70
     0
  0
VERTEX
  8
LAYER1
 10
3.3889
 20
2.3194
 30
0
 70
     0
  0
SEQEND
  0
POLYLINE
  8
LAYER1
  6
CONTINUOUS
 62
     7
 66
     1
 70
     0
 40
0.0039
 41
0.0039
  0
VERTEX
  8
LAYER1
 10
2.8056
 20
2.3194
 30
0
 70
     0
  0
VERTEX
  8
LAYER1
 10
2.8333
 20
2.3333
 30
0
 70
     0
  0
VERTEX
  8
LAYER1
 10
2.875
 20
2.3472
 30
0
 70
     0
  0
VERTEX
  8
LAYER1
 10
2.9167
 20
2.3611
 30
0
 70
     0
  0
VERTEX
  8
LAYER1
 10
2.9722
 20
2.375
 30
0
 70
     0
  0
VERTEX
  8
LAYER1
 10
3
 20
2.375
 30
0
 70
     0
  0
VERTEX
  8
LAYER1
 10
3.0278
 20
2.375
 30
0
 70
     0
  0
VERTEX
  8
LAYER1
 10
3.0833
 20
2.3611
 30
0
 70
     0
  0
VERTEX
  8
LAYER1
 10
3.1389
 20
2.3472
 30
0
 70
     0
  0
VERTEX
  8
LAYER1
 10
3.1806
 20
2.3333
 30
0
 70
     0
  0
VERTEX
  8
LAYER1
 10
3.1944
 20
2.3194
 30
0
 70
     0
  0
SEQEND
  0
POLYLINE
  8
LAYER1
  6
CONTINUOUS
 62
     7
 66
     1
 70
     0
 40
0.0039
 41
0.0039
  0
VERTEX
  8
LAYER1
 10
2.625
 20
2.3194
 30
0
 70
     0
  0
VERTEX
  8
LAYER1
 10
2.625
 20
2.3194
 30
0
 70
     0
  0
VERTEX
  8
LAYER1
 10
2.6389
 20
2.3333
 30
0
 70
     0
  0
VERTEX
  8
LAYER1
 10
2.6389
 20
2.3333
 30
0
 70
     0
  0
VERTEX
  8
LAYER1
 10
2.6528
 20
2.3472
 30
0
 70
     0
  0
VERTEX
  8
LAYER1
 10
2.6667
 20
2.3611
 30
0
 70
     0
  0
VERTEX
  8
LAYER1
 10
2.6806
 20
2.375
 30
0
 70
     0
  0
VERTEX
  8
LAYER1
 10
2.6944
 20
2.375
 30
0
 70
     0
  0
VERTEX
  8
LAYER1
 10
2.7083
 20
2.375
 30
0
 70
     0
  0
VERTEX
  8
LAYER1
 10
2.7222
 20
2.375
 30
0
 70
     0
  0
VERTEX
  8
LAYER1
 10
2.7361
 20
2.375
 30
0
 70
     0
  0
VERTEX
  8
LAYER1
 10
2.7639
 20
2.3611
 30
0
 70
     0
  0
VERTEX
  8
LAYER1
 10
2.7778
 20
2.3472
 30
0
 70
     0
  0
VERTEX
  8
LAYER1
 10
2.7917
 20
2.3333
 30
0
 70
     0
  0
VERTEX
  8
LAYER1
 10
2.8056
 20
2.3333
 30
0
 70
     0
  0
VERTEX
  8
LAYER1
 10
2.8056
 20
2.3194
 30
0
 70
     0
  0
VERTEX
  8
LAYER1
 10
2.8056
 20
2.3194
 30
0
 70
     0
  0
SEQEND
  0
LINE
  8
LAYER1
  6
CONTINUOUS
 62
     7
 10
3.1944
 20
1.9722
 30
0
 11
3.1944
 21
2.3194
 31
0
  0
LINE
  8
LAYER1
  6
CONTINUOUS
 62
     7
 10
2.8056
 20
1.9722
 30
0
 11
2.8056
 21
2.3194
 31
0
  0
LINE
  8
LAYER1
  6
CONTINUOUS
 62
     7
 10
2.7083
 20
2.375
 30
0
 11
3.2917
 21
2.375
 31
0
  0
ENDBLK
  8
LAYER1
  0
BLOCK
  8
LAYER1
  2
Group11
 70
     0
 10
0
 20
0
 30
0
  0
POLYLINE
  8
LAYER1
  6
CONTINUOUS
 62
     7
 66
     1
 70
     0
 40
0.0039
 41
0.0039
  0
VERTEX
  8
LAYER1
 10
3.3889
 20
2.3194
 30
0
 70
     0
  0
VERTEX
  8
LAYER1
 10
3.3889
 20
1.9722
 30
0
 70
     0
  0
VERTEX
  8
LAYER1
 10
2.625
 20
1.9722
 30
0
 70
     0
  0
VERTEX
  8
LAYER1
 10
2.625
 20
2.3194
 30
0
 70
     0
  0
SEQEND
  0
POLYLINE
  8
LAYER1
  6
CONTINUOUS
 62
     7
 66
     1
 70
     0
 40
0.0039
 41
0.0039
  0
VERTEX
  8
LAYER1
 10
9.5556
 20
8.3472
 30
0
 70
     0
  0
VERTEX
  8
LAYER1
 10
9.5069
 20
8.3594
 30
0
 70
     0
  0
VERTEX
  8
LAYER1
 10
9.4722
 20
8.3958
 30
0
 70
     0
  0
VERTEX
  8
LAYER1
 10
9.4722
 20
8.3958
 30
0
 70
     0
  0
VERTEX
  8
LAYER1
 10
9.4583
 20
8.4444
 30
0
 70
     0
  0
VERTEX
  8
LAYER1
 10
9.4722
 20
8.4931
 30
0
 70
     0
  0
VERTEX
  8
LAYER1
 10
9.4722
 20
8.4931
 30
0
 70
     0
  0
VERTEX
  8
LAYER1
 10
9.5069
 20
8.5295
 30
0
 70
     0
  0
VERTEX
  8
LAYER1
 10
9.5556
 20
8.5417
 30
0
 70
     0
  0
VERTEX
  8
LAYER1
 10
9.5556
 20
8.5417
 30
0
 70
     0
  0
VERTEX
  8
LAYER1
 10
9.6042
 20
8.5295
 30
0
 70
     0
  0
VERTEX
  8
LAYER1
 10
9.6389
 20
8.4931
 30
0
 70
     0
  0
VERTEX
  8
LAYER1
 10
9.6389
 20
8.4931
 30
0
 70
     0
  0
VERTEX
  8
LAYER1
 10
9.6528
 20
8.4444
 30
0
 70
     0
  0
VERTEX
  8
LAYER1
 10
9.6389
 20
8.3958
 30
0
 70
     0
  0
VERTEX
  8
LAYER1
 10
9.6389
 20
8.3958
 30
0
 70
     0
  0
VERTEX
  8
LAYER1
 10
9.6042
 20
8.3594
 30
0
 70
     0
  0
VERTEX
  8
LAYER1
 10
9.5556
 20
8.3472
 30
0
 70
     0
  0
SEQEND
  0
CIRCLE
  8
LAYER1
 10
9.5556
 20
8.4444
 30
0
 40
0.0972
  0
CIRCLE
  8
LAYER1
 10
9.5625
 20
8.4375
 30
0
 40
0.0486
  0
ENDBLK
  8
LAYER1
  0
BLOCK
  8
LAYER1
  2
Group12
 70
     0
 10
0
 20
0
 30
0
  0
LINE
  8
LAYER1
  6
CONTINUOUS
 62
     7
 10
9.4444
 20
8.625
 30
0
 11
9.6667
 21
8.625
 31
0
  0
POLYLINE
  8
LAYER1
  6
CONTINUOUS
 62
     7
 66
     1
 70
     0
 40
0.0039
 41
0.0039
  0
VERTEX
  8
LAYER1
 10
9.6111
 20
8.625
 30
0
 70
     0
  0
VERTEX
  8
LAYER1
 10
9.6111
 20
8.625
 30
0
 70
     0
  0
VERTEX
  8
LAYER1
 10
9.625
 20
8.6389
 30
0
 70
     0
  0
VERTEX
  8
LAYER1
 10
9.625
 20
8.6389
 30
0
 70
     0
  0
VERTEX
  8
LAYER1
 10
9.625
 20
8.6389
 30
0
 70
     0
  0
VERTEX
  8
LAYER1
 10
9.6389
 20
8.6528
 30
0
 70
     0
  0
VERTEX
  8
LAYER1
 10
9.6389
 20
8.6528
 30
0
 70
     0
  0
VERTEX
  8
LAYER1
 10
9.6528
 20
8.6528
 30
0
 70
     0
  0
VERTEX
  8
LAYER1
 10
9.6528
 20
8.6389
 30
0
 70
     0
  0
VERTEX
  8
LAYER1
 10
9.6528
 20
8.6389
 30
0
 70
     0
  0
VERTEX
  8
LAYER1
 10
9.6667
 20
8.6389
 30
0
 70
     0
  0
VERTEX
  8
LAYER1
 10
9.6667
 20
8.625
 30
0
 70
     0
  0
VERTEX
  8
LAYER1
 10
9.6667
 20
8.625
 30
0
 70
     0
  0
SEQEND
  0
POLYLINE
  8
LAYER1
  6
CONTINUOUS
 62
     7
 66
     1
 70
     0
 40
0.0039
 41
0.0039
  0
VERTEX
  8
LAYER1
 10
9.5
 20
8.625
 30
0
 70
     0
  0
VERTEX
  8
LAYER1
 10
9.5139
 20
8.6389
 30
0
 70
     0
  0
VERTEX
  8
LAYER1
 10
9.5417
 20
8.6528
 30
0
 70
     0
  0
VERTEX
  8
LAYER1
 10
9.5556
 20
8.6528
 30
0
 70
     0
  0
VERTEX
  8
LAYER1
 10
9.5694
 20
8.6528
 30
0
 70
     0
  0
VERTEX
  8
LAYER1
 10
9.5972
 20
8.6389
 30
0
 70
     0
  0
VERTEX
  8
LAYER1
 10
9.6111
 20
8.625
 30
0
 70
     0
  0
SEQEND
  0
POLYLINE
  8
LAYER1
  6
CONTINUOUS
 62
     7
 66
     1
 70
     0
 40
0.0039
 41
0.0039
  0
VERTEX
  8
LAYER1
 10
9.4444
 20
8.625
 30
0
 70
     0
  0
VERTEX
  8
LAYER1
 10
9.4583
 20
8.6389
 30
0
 70
     0
  0
VERTEX
  8
LAYER1
 10
9.4722
 20
8.6528
 30
0
 70
     0
  0
VERTEX
  8
LAYER1
 10
9.4861
 20
8.6528
 30
0
 70
     0
  0
VERTEX
  8
LAYER1
 10
9.5
 20
8.6389
 30
0
 70
     0
  0
VERTEX
  8
LAYER1
 10
9.5
 20
8.6389
 30
0
 70
     0
  0
VERTEX
  8
LAYER1
 10
9.5
 20
8.625
 30
0
 70
     0
  0
SEQEND
  0
LINE
  8
LAYER1
  6
CONTINUOUS
 62
     7
 10
9.6389
 20
8.6528
 30
0
 11
9.4722
 21
8.6528
 31
0
  0
POLYLINE
  8
LAYER1
  6
CONTINUOUS
 62
     7
 66
     1
 70
     0
 40
0.0039
 41
0.0039
  0
VERTEX
  8
LAYER1
 10
9.6667
 20
8.625
 30
0
 70
     0
  0
VERTEX
  8
LAYER1
 10
9.6667
 20
8.5694
 30
0
 70
     0
  0
VERTEX
  8
LAYER1
 10
9.4444
 20
8.5694
 30
0
 70
     0
  0
VERTEX
  8
LAYER1
 10
9.4444
 20
8.625
 30
0
 70
     0
  0
SEQEND
  0
LINE
  8
LAYER1
  6
CONTINUOUS
 62
     7
 10
9.6111
 20
8.5694
 30
0
 11
9.6111
 21
8.625
 31
0
  0
ENDBLK
  8
LAYER1
  0
BLOCK
  8
LAYER1
  2
Group13
 70
     0
 10
0
 20
0
 30
0
  0
LINE
  8
LAYER1
  6
CONTINUOUS
 62
     7
 10
9.5
 20
8.5694
 30
0
 11
9.5
 21
8.625
 31
0
  0
POLYLINE
  8
LAYER1
  6
CONTINUOUS
 62
     7
 66
     1
 70
     0
 40
0.0039
 41
0.0039
  0
VERTEX
  8
LAYER1
 10
10.4097
 20
8.3472
 30
0
 70
     0
  0
VERTEX
  8
LAYER1
 10
10.3676
 20
8.352
 30
0
 70
     0
  0
VERTEX
  8
LAYER1
 10
10.3316
 20
8.3663
 30
0
 70
     0
  0
VERTEX
  8
LAYER1
 10
10.3016
 20
8.3902
 30
0
 70
     0
  0
VERTEX
  8
LAYER1
 10
10.2778
 20
8.4236
 30
0
 70
     0
  0
VERTEX
  8
LAYER1
 10
10.2778
 20
8.4236
 30
0
 70
     0
  0
VERTEX
  8
LAYER1
 10
10.2621
 20
8.4622
 30
0
 70
     0
  0
VERTEX
  8
LAYER1
 10
10.2569
 20
8.5017
 30
0
 70
     0
  0
VERTEX
  8
LAYER1
 10
10.2621
 20
8.5421
 30
0
 70
     0
  0
VERTEX
  8
LAYER1
 10
10.2778
 20
8.5833
 30
0
 70
     0
  0
VERTEX
  8
LAYER1
 10
10.2778
 20
8.5833
 30
0
 70
     0
  0
VERTEX
  8
LAYER1
 10
10.3016
 20
8.6198
 30
0
 70
     0
  0
VERTEX
  8
LAYER1
 10
10.3316
 20
8.6458
 30
0
 70
     0
  0
VERTEX
  8
LAYER1
 10
10.3676
 20
8.6614
 30
0
 70
     0
  0
VERTEX
  8
LAYER1
 10
10.4097
 20
8.6667
 30
0
 70
     0
  0
VERTEX
  8
LAYER1
 10
10.4097
 20
8.6667
 30
0
 70
     0
  0
VERTEX
  8
LAYER1
 10
10.4523
 20
8.6614
 30
0
 70
     0
  0
VERTEX
  8
LAYER1
 10
10.4896
 20
8.6458
 30
0
 70
     0
  0
VERTEX
  8
LAYER1
 10
10.5217
 20
8.6198
 30
0
 70
     0
  0
VERTEX
  8
LAYER1
 10
10.5486
 20
8.5833
 30
0
 70
     0
  0
VERTEX
  8
LAYER1
 10
10.5486
 20
8.5833
 30
0
 70
     0
  0
VERTEX
  8
LAYER1
 10
10.5668
 20
8.5421
 30
0
 70
     0
  0
VERTEX
  8
LAYER1
 10
10.5729
 20
8.5017
 30
0
 70
     0
  0
VERTEX
  8
LAYER1
 10
10.5668
 20
8.4622
 30
0
 70
     0
  0
VERTEX
  8
LAYER1
 10
10.5486
 20
8.4236
 30
0
 70
     0
  0
VERTEX
  8
LAYER1
 10
10.5486
 20
8.4236
 30
0
 70
     0
  0
VERTEX
  8
LAYER1
 10
10.5217
 20
8.3902
 30
0
 70
     0
  0
VERTEX
  8
LAYER1
 10
10.4896
 20
8.3663
 30
0
 70
     0
  0
VERTEX
  8
LAYER1
 10
10.4523
 20
8.352
 30
0
 70
     0
  0
VERTEX
  8
LAYER1
 10
10.4097
 20
8.3472
 30
0
 70
     0
  0
SEQEND
  0
CIRCLE
  8
LAYER1
 10
10.4097
 20
8.5069
 30
0
 40
0.1597
  0
CIRCLE
  8
LAYER1
 10
10.4167
 20
8.5
 30
0
 40
0.0694
  0
ENDBLK
  8
LAYER1
  0
BLOCK
  8
LAYER1
  2
Group14
 70
     0
 10
0
 20
0
 30
0
  0
LINE
  8
LAYER1
  6
CONTINUOUS
 62
     7
 10
10.2361
 20
8.7778
 30
0
 11
10.5972
 21
8.7778
 31
0
  0
POLYLINE
  8
LAYER1
  6
CONTINUOUS
 62
     7
 66
     1
 70
     0
 40
0.0039
 41
0.0039
  0
VERTEX
  8
LAYER1
 10
10.5
 20
8.7778
 30
0
 70
     0
  0
VERTEX
  8
LAYER1
 10
10.5
 20
8.7778
 30
0
 70
     0
  0
VERTEX
  8
LAYER1
 10
10.5139
 20
8.7917
 30
0
 70
     0
  0
VERTEX
  8
LAYER1
 10
10.5139
 20
8.7917
 30
0
 70
     0
  0
VERTEX
  8
LAYER1
 10
10.5139
 20
8.7917
 30
0
 70
     0
  0
VERTEX
  8
LAYER1
 10
10.5417
 20
8.8056
 30
0
 70
     0
  0
VERTEX
  8
LAYER1
 10
10.5417
 20
8.8056
 30
0
 70
     0
  0
VERTEX
  8
LAYER1
 10
10.5556
 20
8.8056
 30
0
 70
     0
  0
VERTEX
  8
LAYER1
 10
10.5833
 20
8.7917
 30
0
 70
     0
  0
VERTEX
  8
LAYER1
 10
10.5833
 20
8.7917
 30
0
 70
     0
  0
VERTEX
  8
LAYER1
 10
10.5972
 20
8.7778
 30
0
 70
     0
  0
SEQEND
  0
POLYLINE
  8
LAYER1
  6
CONTINUOUS
 62
     7
 66
     1
 70
     0
 40
0.0039
 41
0.0039
  0
VERTEX
  8
LAYER1
 10
10.2361
 20
8.7778
 30
0
 70
     0
  0
VERTEX
  8
LAYER1
 10
10.2361
 20
8.7917
 30
0
 70
     0
  0
VERTEX
  8
LAYER1
 10
10.2361
 20
8.7917
 30
0
 70
     0
  0
VERTEX
  8
LAYER1
 10
10.2639
 20
8.8056
 30
0
 70
     0
  0
VERTEX
  8
LAYER1
 10
10.2778
 20
8.8056
 30
0
 70
     0
  0
VERTEX
  8
LAYER1
 10
10.2917
 20
8.8056
 30
0
 70
     0
  0
VERTEX
  8
LAYER1
 10
10.3194
 20
8.7917
 30
0
 70
     0
  0
VERTEX
  8
LAYER1
 10
10.3194
 20
8.7917
 30
0
 70
     0
  0
VERTEX
  8
LAYER1
 10
10.3194
 20
8.7778
 30
0
 70
     0
  0
SEQEND
  0
LINE
  8
LAYER1
  6
CONTINUOUS
 62
     7
 10
10.2778
 20
8.8056
 30
0
 11
10.5417
 21
8.8056
 31
0
  0
POLYLINE
  8
LAYER1
  6
CONTINUOUS
 62
     7
 66
     1
 70
     0
 40
0.0039
 41
0.0039
  0
VERTEX
  8
LAYER1
 10
10.5972
 20
8.7778
 30
0
 70
     0
  0
VERTEX
  8
LAYER1
 10
10.5972
 20
8.6944
 30
0
 70
     0
  0
VERTEX
  8
LAYER1
 10
10.2361
 20
8.6944
 30
0
 70
     0
  0
VERTEX
  8
LAYER1
 10
10.2361
 20
8.7778
 30
0
 70
     0
  0
SEQEND
  0
LINE
  8
LAYER1
  6
CONTINUOUS
 62
     7
 10
10.3194
 20
8.6944
 30
0
 11
10.3194
 21
8.7778
 31
0
  0
ENDBLK
  8
LAYER1
  0
BLOCK
  8
LAYER1
  2
Group15
 70
     0
 10
0
 20
0
 30
0
  0
POLYLINE
  8
LAYER1
  6
CONTINUOUS
 62
     7
 66
     1
 70
     0
 40
0.0039
 41
0.0039
  0
VERTEX
  8
LAYER1
 10
10.3194
 20
8.7778
 30
0
 70
     0
  0
VERTEX
  8
LAYER1
 10
10.3472
 20
8.7917
 30
0
 70
     0
  0
VERTEX
  8
LAYER1
 10
10.3889
 20
8.8056
 30
0
 70
     0
  0
VERTEX
  8
LAYER1
 10
10.4167
 20
8.8056
 30
0
 70
     0
  0
VERTEX
  8
LAYER1
 10
10.4444
 20
8.8056
 30
0
 70
     0
  0
VERTEX
  8
LAYER1
 10
10.4861
 20
8.7917
 30
0
 70
     0
  0
VERTEX
  8
LAYER1
 10
10.5
 20
8.7778
 30
0
 70
     0
  0
SEQEND
  0
INSERT
  8
LAYER1
  2
Group14
 10
0
 20
0
 30
0
  0
ENDBLK
  8
LAYER1
  0
BLOCK
  8
LAYER1
  2
Group16
 70
     0
 10
0
 20
0
 30
0
  0
LINE
  8
LAYER1
  6
CONTINUOUS
 62
     7
 10
10.5
 20
8.6944
 30
0
 11
10.5
 21
8.7778
 31
0
  0
POLYLINE
  8
LAYER1
  6
CONTINUOUS
 62
     7
 66
     1
 70
     0
 40
0.0039
 41
0.0039
  0
VERTEX
  8
LAYER1
 10
12.4306
 20
8.3472
 30
0
 70
     0
  0
VERTEX
  8
LAYER1
 10
12.385
 20
8.3524
 30
0
 70
     0
  0
VERTEX
  8
LAYER1
 10
12.3455
 20
8.3681
 30
0
 70
     0
  0
VERTEX
  8
LAYER1
 10
12.3121
 20
8.3941
 30
0
 70
     0
  0
VERTEX
  8
LAYER1
 10
12.2847
 20
8.4306
 30
0
 70
     0
  0
VERTEX
  8
LAYER1
 10
12.2847
 20
8.4306
 30
0
 70
     0
  0
VERTEX
  8
LAYER1
 10
12.2665
 20
8.4727
 30
0
 70
     0
  0
VERTEX
  8
LAYER1
 10
12.2604
 20
8.5156
 30
0
 70
     0
  0
VERTEX
  8
LAYER1
 10
12.2665
 20
8.5595
 30
0
 70
     0
  0
VERTEX
  8
LAYER1
 10
12.2847
 20
8.6042
 30
0
 70
     0
  0
VERTEX
  8
LAYER1
 10
12.2847
 20
8.6042
 30
0
 70
     0
  0
VERTEX
  8
LAYER1
 10
12.3121
 20
8.6437
 30
0
 70
     0
  0
VERTEX
  8
LAYER1
 10
12.3455
 20
8.6719
 30
0
 70
     0
  0
VERTEX
  8
LAYER1
 10
12.385
 20
8.6888
 30
0
 70
     0
  0
VERTEX
  8
LAYER1
 10
12.4306
 20
8.6944
 30
0
 70
     0
  0
VERTEX
  8
LAYER1
 10
12.4306
 20
8.6944
 30
0
 70
     0
  0
VERTEX
  8
LAYER1
 10
12.4761
 20
8.6888
 30
0
 70
     0
  0
VERTEX
  8
LAYER1
 10
12.5156
 20
8.6719
 30
0
 70
     0
  0
VERTEX
  8
LAYER1
 10
12.549
 20
8.6437
 30
0
 70
     0
  0
VERTEX
  8
LAYER1
 10
12.5764
 20
8.6042
 30
0
 70
     0
  0
VERTEX
  8
LAYER1
 10
12.5764
 20
8.6042
 30
0
 70
     0
  0
VERTEX
  8
LAYER1
 10
12.5946
 20
8.5595
 30
0
 70
     0
  0
VERTEX
  8
LAYER1
 10
12.6007
 20
8.5156
 30
0
 70
     0
  0
VERTEX
  8
LAYER1
 10
12.5946
 20
8.4727
 30
0
 70
     0
  0
VERTEX
  8
LAYER1
 10
12.5764
 20
8.4306
 30
0
 70
     0
  0
VERTEX
  8
LAYER1
 10
12.5764
 20
8.4306
 30
0
 70
     0
  0
VERTEX
  8
LAYER1
 10
12.549
 20
8.3941
 30
0
 70
     0
  0
VERTEX
  8
LAYER1
 10
12.5156
 20
8.3681
 30
0
 70
     0
  0
VERTEX
  8
LAYER1
 10
12.4761
 20
8.3524
 30
0
 70
     0
  0
VERTEX
  8
LAYER1
 10
12.4306
 20
8.3472
 30
0
 70
     0
  0
SEQEND
  0
CIRCLE
  8
LAYER1
 10
12.4444
 20
8.5139
 30
0
 40
0.1806
  0
CIRCLE
  8
LAYER1
 10
12.4375
 20
8.5069
 30
0
 40
0.0903
  0
ENDBLK
  8
LAYER1
  0
BLOCK
  8
LAYER1
  2
Group17
 70
     0
 10
0
 20
0
 30
0
  0
LINE
  8
LAYER1
  6
CONTINUOUS
 62
     7
 10
12.2361
 20
8.8333
 30
0
 11
12.6389
 21
8.8333
 31
0
  0
POLYLINE
  8
LAYER1
  6
CONTINUOUS
 62
     7
 66
     1
 70
     0
 40
0.0039
 41
0.0039
  0
VERTEX
  8
LAYER1
 10
12.5278
 20
8.8333
 30
0
 70
     0
  0
VERTEX
  8
LAYER1
 10
12.5417
 20
8.8333
 30
0
 70
     0
  0
VERTEX
  8
LAYER1
 10
12.5556
 20
8.8472
 30
0
 70
     0
  0
VERTEX
  8
LAYER1
 10
12.5694
 20
8.8611
 30
0
 70
     0
  0
VERTEX
  8
LAYER1
 10
12.5833
 20
8.8611
 30
0
 70
     0
  0
VERTEX
  8
LAYER1
 10
12.5972
 20
8.8611
 30
0
 70
     0
  0
VERTEX
  8
LAYER1
 10
12.625
 20
8.8472
 30
0
 70
     0
  0
VERTEX
  8
LAYER1
 10
12.6389
 20
8.8333
 30
0
 70
     0
  0
VERTEX
  8
LAYER1
 10
12.6389
 20
8.8333
 30
0
 70
     0
  0
SEQEND
  0
POLYLINE
  8
LAYER1
  6
CONTINUOUS
 62
     7
 66
     1
 70
     0
 40
0.0039
 41
0.0039
  0
VERTEX
  8
LAYER1
 10
12.3333
 20
8.8333
 30
0
 70
     0
  0
VERTEX
  8
LAYER1
 10
12.3611
 20
8.8472
 30
0
 70
     0
  0
VERTEX
  8
LAYER1
 10
12.4028
 20
8.8611
 30
0
 70
     0
  0
VERTEX
  8
LAYER1
 10
12.4306
 20
8.8611
 30
0
 70
     0
  0
VERTEX
  8
LAYER1
 10
12.4583
 20
8.8611
 30
0
 70
     0
  0
VERTEX
  8
LAYER1
 10
12.5139
 20
8.8472
 30
0
 70
     0
  0
VERTEX
  8
LAYER1
 10
12.5278
 20
8.8333
 30
0
 70
     0
  0
SEQEND
  0
POLYLINE
  8
LAYER1
  6
CONTINUOUS
 62
     7
 66
     1
 70
     0
 40
0.0039
 41
0.0039
  0
VERTEX
  8
LAYER1
 10
12.2361
 20
8.8333
 30
0
 70
     0
  0
VERTEX
  8
LAYER1
 10
12.25
 20
8.8472
 30
0
 70
     0
  0
VERTEX
  8
LAYER1
 10
12.25
 20
8.8472
 30
0
 70
     0
  0
VERTEX
  8
LAYER1
 10
12.2778
 20
8.8611
 30
0
 70
     0
  0
VERTEX
  8
LAYER1
 10
12.2778
 20
8.8611
 30
0
 70
     0
  0
VERTEX
  8
LAYER1
 10
12.2917
 20
8.8611
 30
0
 70
     0
  0
VERTEX
  8
LAYER1
 10
12.3194
 20
8.8472
 30
0
 70
     0
  0
VERTEX
  8
LAYER1
 10
12.3194
 20
8.8472
 30
0
 70
     0
  0
VERTEX
  8
LAYER1
 10
12.3333
 20
8.8333
 30
0
 70
     0
  0
SEQEND
  0
LINE
  8
LAYER1
  6
CONTINUOUS
 62
     7
 10
12.2778
 20
8.8611
 30
0
 11
12.5833
 21
8.8611
 31
0
  0
POLYLINE
  8
LAYER1
  6
CONTINUOUS
 62
     7
 66
     1
 70
     0
 40
0.0039
 41
0.0039
  0
VERTEX
  8
LAYER1
 10
12.6389
 20
8.8333
 30
0
 70
     0
  0
VERTEX
  8
LAYER1
 10
12.6389
 20
8.7222
 30
0
 70
     0
  0
VERTEX
  8
LAYER1
 10
12.2361
 20
8.7222
 30
0
 70
     0
  0
VERTEX
  8
LAYER1
 10
12.2361
 20
8.8333
 30
0
 70
     0
  0
SEQEND
  0
LINE
  8
LAYER1
  6
CONTINUOUS
 62
     7
 10
12.3333
 20
8.7222
 30
0
 11
12.3333
 21
8.8333
 31
0
  0
ENDBLK
  8
LAYER1
  0
BLOCK
  8
LAYER1
  2
Group18
 70
     0
 10
0
 20
0
 30
0
  0
LINE
  8
LAYER1
  6
CONTINUOUS
 62
     7
 10
12.5278
 20
8.7222
 30
0
 11
12.5278
 21
8.8333
 31
0
  0
POLYLINE
  8
LAYER1
  6
CONTINUOUS
 62
     7
 66
     1
 70
     0
 40
0.0039
 41
0.0039
  0
VERTEX
  8
LAYER1
 10
13.2847
 20
8.3472
 30
0
 70
     0
  0
VERTEX
  8
LAYER1
 10
13.2357
 20
8.3533
 30
0
 70
     0
  0
VERTEX
  8
LAYER1
 10
13.1927
 20
8.3715
 30
0
 70
     0
  0
VERTEX
  8
LAYER1
 10
13.1558
 20
8.4019
 30
0
 70
     0
  0
VERTEX
  8
LAYER1
 10
13.125
 20
8.4444
 30
0
 70
     0
  0
VERTEX
  8
LAYER1
 10
13.125
 20
8.4444
 30
0
 70
     0
  0
VERTEX
  8
LAYER1
 10
13.1042
 20
8.4926
 30
0
 70
     0
  0
VERTEX
  8
LAYER1
 10
13.0972
 20
8.5399
 30
0
 70
     0
  0
VERTEX
  8
LAYER1
 10
13.1042
 20
8.5864
 30
0
 70
     0
  0
VERTEX
  8
LAYER1
 10
13.125
 20
8.6319
 30
0
 70
     0
  0
VERTEX
  8
LAYER1
 10
13.125
 20
8.6319
 30
0
 70
     0
  0
VERTEX
  8
LAYER1
 10
13.1558
 20
8.6714
 30
0
 70
     0
  0
VERTEX
  8
LAYER1
 10
13.1927
 20
8.6996
 30
0
 70
     0
  0
VERTEX
  8
LAYER1
 10
13.2357
 20
8.7166
 30
0
 70
     0
  0
VERTEX
  8
LAYER1
 10
13.2847
 20
8.7222
 30
0
 70
     0
  0
VERTEX
  8
LAYER1
 10
13.2847
 20
8.7222
 30
0
 70
     0
  0
VERTEX
  8
LAYER1
 10
13.3338
 20
8.7166
 30
0
 70
     0
  0
VERTEX
  8
LAYER1
 10
13.3767
 20
8.6996
 30
0
 70
     0
  0
VERTEX
  8
LAYER1
 10
13.4136
 20
8.6714
 30
0
 70
     0
  0
VERTEX
  8
LAYER1
 10
13.4444
 20
8.6319
 30
0
 70
     0
  0
VERTEX
  8
LAYER1
 10
13.4444
 20
8.6319
 30
0
 70
     0
  0
VERTEX
  8
LAYER1
 10
13.4653
 20
8.5864
 30
0
 70
     0
  0
VERTEX
  8
LAYER1
 10
13.4722
 20
8.5399
 30
0
 70
     0
  0
VERTEX
  8
LAYER1
 10
13.4653
 20
8.4926
 30
0
 70
     0
  0
VERTEX
  8
LAYER1
 10
13.4444
 20
8.4444
 30
0
 70
     0
  0
VERTEX
  8
LAYER1
 10
13.4444
 20
8.4444
 30
0
 70
     0
  0
VERTEX
  8
LAYER1
 10
13.4136
 20
8.4019
 30
0
 70
     0
  0
VERTEX
  8
LAYER1
 10
13.3767
 20
8.3715
 30
0
 70
     0
  0
VERTEX
  8
LAYER1
 10
13.3338
 20
8.3533
 30
0
 70
     0
  0
VERTEX
  8
LAYER1
 10
13.2847
 20
8.3472
 30
0
 70
     0
  0
SEQEND
  0
CIRCLE
  8
LAYER1
 10
13.2917
 20
8.5278
 30
0
 40
0.1944
  0
CIRCLE
  8
LAYER1
 10
13.2986
 20
8.5208
 30
0
 40
0.1042
  0
ENDBLK
  8
LAYER1
  0
BLOCK
  8
LAYER1
  2
Group19
 70
     0
 10
0
 20
0
 30
0
  0
LINE
  8
LAYER1
  6
CONTINUOUS
 62
     7
 10
13.0694
 20
8.8611
 30
0
 11
13.5
 21
8.8611
 31
0
  0
POLYLINE
  8
LAYER1
  6
CONTINUOUS
 62
     7
 66
     1
 70
     0
 40
0.0039
 41
0.0039
  0
VERTEX
  8
LAYER1
 10
13.3889
 20
8.8611
 30
0
 70
     0
  0
VERTEX
  8
LAYER1
 10
13.4028
 20
8.875
 30
0
 70
     0
  0
VERTEX
  8
LAYER1
 10
13.4028
 20
8.875
 30
0
 70
     0
  0
VERTEX
  8
LAYER1
 10
13.4306
 20
8.8889
 30
0
 70
     0
  0
VERTEX
  8
LAYER1
 10
13.4444
 20
8.8889
 30
0
 70
     0
  0
VERTEX
  8
LAYER1
 10
13.4583
 20
8.8889
 30
0
 70
     0
  0
VERTEX
  8
LAYER1
 10
13.4861
 20
8.875
 30
0
 70
     0
  0
VERTEX
  8
LAYER1
 10
13.5
 20
8.875
 30
0
 70
     0
  0
VERTEX
  8
LAYER1
 10
13.5
 20
8.8611
 30
0
 70
     0
  0
SEQEND
  0
POLYLINE
  8
LAYER1
  6
CONTINUOUS
 62
     7
 66
     1
 70
     0
 40
0.0039
 41
0.0039
  0
VERTEX
  8
LAYER1
 10
13.1806
 20
8.8611
 30
0
 70
     0
  0
VERTEX
  8
LAYER1
 10
13.2083
 20
8.875
 30
0
 70
     0
  0
VERTEX
  8
LAYER1
 10
13.2639
 20
8.8889
 30
0
 70
     0
  0
VERTEX
  8
LAYER1
 10
13.2917
 20
8.8889
 30
0
 70
     0
  0
VERTEX
  8
LAYER1
 10
13.3194
 20
8.8889
 30
0
 70
     0
  0
VERTEX
  8
LAYER1
 10
13.375
 20
8.875
 30
0
 70
     0
  0
VERTEX
  8
LAYER1
 10
13.3889
 20
8.8611
 30
0
 70
     0
  0
SEQEND
  0
POLYLINE
  8
LAYER1
  6
CONTINUOUS
 62
     7
 66
     1
 70
     0
 40
0.0039
 41
0.0039
  0
VERTEX
  8
LAYER1
 10
13.0694
 20
8.8611
 30
0
 70
     0
  0
VERTEX
  8
LAYER1
 10
13.0694
 20
8.8611
 30
0
 70
     0
  0
VERTEX
  8
LAYER1
 10
13.0833
 20
8.875
 30
0
 70
     0
  0
VERTEX
  8
LAYER1
 10
13.0833
 20
8.875
 30
0
 70
     0
  0
VERTEX
  8
LAYER1
 10
13.0833
 20
8.875
 30
0
 70
     0
  0
VERTEX
  8
LAYER1
 10
13.1111
 20
8.8889
 30
0
 70
     0
  0
VERTEX
  8
LAYER1
 10
13.125
 20
8.8889
 30
0
 70
     0
  0
VERTEX
  8
LAYER1
 10
13.1389
 20
8.8889
 30
0
 70
     0
  0
VERTEX
  8
LAYER1
 10
13.1667
 20
8.875
 30
0
 70
     0
  0
VERTEX
  8
LAYER1
 10
13.1667
 20
8.875
 30
0
 70
     0
  0
VERTEX
  8
LAYER1
 10
13.1806
 20
8.875
 30
0
 70
     0
  0
VERTEX
  8
LAYER1
 10
13.1806
 20
8.8611
 30
0
 70
     0
  0
VERTEX
  8
LAYER1
 10
13.1806
 20
8.8611
 30
0
 70
     0
  0
SEQEND
  0
POLYLINE
  8
LAYER1
  6
CONTINUOUS
 62
     7
 66
     1
 70
     0
 40
0.0039
 41
0.0039
  0
VERTEX
  8
LAYER1
 10
13.5
 20
8.8611
 30
0
 70
     0
  0
VERTEX
  8
LAYER1
 10
13.5
 20
8.7639
 30
0
 70
     0
  0
VERTEX
  8
LAYER1
 10
13.0694
 20
8.7639
 30
0
 70
     0
  0
VERTEX
  8
LAYER1
 10
13.0694
 20
8.8611
 30
0
 70
     0
  0
SEQEND
  0
LINE
  8
LAYER1
  6
CONTINUOUS
 62
     7
 10
13.1806
 20
8.7639
 30
0
 11
13.1806
 21
8.8611
 31
0
  0
LINE
  8
LAYER1
  6
CONTINUOUS
 62
     7
 10
13.3889
 20
8.7639
 30
0
 11
13.3889
 21
8.8611
 31
0
  0
ENDBLK
  8
LAYER1
  0
BLOCK
  8
LAYER1
  2
Group20
 70
     0
 10
0
 20
0
 30
0
  0
LINE
  8
LAYER1
  6
CONTINUOUS
 62
     7
 10
13.125
 20
8.8889
 30
0
 11
13.4444
 21
8.8889
 31
0
  0
POLYLINE
  8
LAYER1
  6
CONTINUOUS
 62
     7
 66
     1
 70
     0
 40
0.0039
 41
0.0039
  0
VERTEX
  8
LAYER1
 10
9.5417
 20
5.875
 30
0
 70
     0
  0
VERTEX
  8
LAYER1
 10
9.4831
 20
5.8815
 30
0
 70
     0
  0
VERTEX
  8
LAYER1
 10
9.4323
 20
5.901
 30
0
 70
     0
  0
VERTEX
  8
LAYER1
 10
9.3893
 20
5.9336
 30
0
 70
     0
  0
VERTEX
  8
LAYER1
 10
9.3542
 20
5.9792
 30
0
 70
     0
  0
VERTEX
  8
LAYER1
 10
9.3542
 20
5.9792
 30
0
 70
     0
  0
VERTEX
  8
LAYER1
 10
9.3307
 20
6.0317
 30
0
 70
     0
  0
VERTEX
  8
LAYER1
 10
9.3229
 20
6.0851
 30
0
 70
     0
  0
VERTEX
  8
LAYER1
 10
9.3307
 20
6.1393
 30
0
 70
     0
  0
VERTEX
  8
LAYER1
 10
9.3542
 20
6.1944
 30
0
 70
     0
  0
VERTEX
  8
LAYER1
 10
9.3542
 20
6.1944
 30
0
 70
     0
  0
VERTEX
  8
LAYER1
 10
9.3893
 20
6.2431
 30
0
 70
     0
  0
VERTEX
  8
LAYER1
 10
9.4323
 20
6.2778
 30
0
 70
     0
  0
VERTEX
  8
LAYER1
 10
9.4831
 20
6.2986
 30
0
 70
     0
  0
VERTEX
  8
LAYER1
 10
9.5417
 20
6.3056
 30
0
 70
     0
  0
VERTEX
  8
LAYER1
 10
9.5417
 20
6.3056
 30
0
 70
     0
  0
VERTEX
  8
LAYER1
 10
9.6003
 20
6.2986
 30
0
 70
     0
  0
VERTEX
  8
LAYER1
 10
9.651
 20
6.2778
 30
0
 70
     0
  0
VERTEX
  8
LAYER1
 10
9.694
 20
6.2431
 30
0
 70
     0
  0
VERTEX
  8
LAYER1
 10
9.7292
 20
6.1944
 30
0
 70
     0
  0
VERTEX
  8
LAYER1
 10
9.7292
 20
6.1944
 30
0
 70
     0
  0
VERTEX
  8
LAYER1
 10
9.7526
 20
6.1393
 30
0
 70
     0
  0
VERTEX
  8
LAYER1
 10
9.7604
 20
6.0851
 30
0
 70
     0
  0
VERTEX
  8
LAYER1
 10
9.7526
 20
6.0317
 30
0
 70
     0
  0
VERTEX
  8
LAYER1
 10
9.7292
 20
5.9792
 30
0
 70
     0
  0
VERTEX
  8
LAYER1
 10
9.7292
 20
5.9792
 30
0
 70
     0
  0
VERTEX
  8
LAYER1
 10
9.694
 20
5.9336
 30
0
 70
     0
  0
VERTEX
  8
LAYER1
 10
9.651
 20
5.901
 30
0
 70
     0
  0
VERTEX
  8
LAYER1
 10
9.6003
 20
5.8815
 30
0
 70
     0
  0
VERTEX
  8
LAYER1
 10
9.5417
 20
5.875
 30
0
 70
     0
  0
SEQEND
  0
CIRCLE
  8
LAYER1
 10
9.5417
 20
6.0833
 30
0
 40
0.2222
  0
CIRCLE
  8
LAYER1
 10
9.5486
 20
6.0764
 30
0
 40
0.1319
  0
ENDBLK
  8
LAYER1
  0
BLOCK
  8
LAYER1
  2
Group21
 70
     0
 10
0
 20
0
 30
0
  0
LINE
  8
LAYER1
  6
CONTINUOUS
 62
     7
 10
9.2917
 20
6.5
 30
0
 11
9.7917
 21
6.5
 31
0
  0
POLYLINE
  8
LAYER1
  6
CONTINUOUS
 62
     7
 66
     1
 70
     0
 40
0.0039
 41
0.0039
  0
VERTEX
  8
LAYER1
 10
9.6667
 20
6.5
 30
0
 70
     0
  0
VERTEX
  8
LAYER1
 10
9.6667
 20
6.5139
 30
0
 70
     0
  0
VERTEX
  8
LAYER1
 10
9.6806
 20
6.5278
 30
0
 70
     0
  0
VERTEX
  8
LAYER1
 10
9.6806
 20
6.5278
 30
0
 70
     0
  0
VERTEX
  8
LAYER1
 10
9.6944
 20
6.5417
 30
0
 70
     0
  0
VERTEX
  8
LAYER1
 10
9.7083
 20
6.5556
 30
0
 70
     0
  0
VERTEX
  8
LAYER1
 10
9.7222
 20
6.5556
 30
0
 70
     0
  0
VERTEX
  8
LAYER1
 10
9.7361
 20
6.5556
 30
0
 70
     0
  0
VERTEX
  8
LAYER1
 10
9.7639
 20
6.5417
 30
0
 70
     0
  0
VERTEX
  8
LAYER1
 10
9.7778
 20
6.5278
 30
0
 70
     0
  0
VERTEX
  8
LAYER1
 10
9.7917
 20
6.5
 30
0
 70
     0
  0
SEQEND
  0
POLYLINE
  8
LAYER1
  6
CONTINUOUS
 62
     7
 66
     1
 70
     0
 40
0.0039
 41
0.0039
  0
VERTEX
  8
LAYER1
 10
9.4167
 20
6.5
 30
0
 70
     0
  0
VERTEX
  8
LAYER1
 10
9.4306
 20
6.5139
 30
0
 70
     0
  0
VERTEX
  8
LAYER1
 10
9.4444
 20
6.5278
 30
0
 70
     0
  0
VERTEX
  8
LAYER1
 10
9.4722
 20
6.5417
 30
0
 70
     0
  0
VERTEX
  8
LAYER1
 10
9.5278
 20
6.5556
 30
0
 70
     0
  0
VERTEX
  8
LAYER1
 10
9.5417
 20
6.5556
 30
0
 70
     0
  0
VERTEX
  8
LAYER1
 10
9.5556
 20
6.5556
 30
0
 70
     0
  0
VERTEX
  8
LAYER1
 10
9.5972
 20
6.5417
 30
0
 70
     0
  0
VERTEX
  8
LAYER1
 10
9.625
 20
6.5278
 30
0
 70
     0
  0
VERTEX
  8
LAYER1
 10
9.6528
 20
6.5139
 30
0
 70
     0
  0
VERTEX
  8
LAYER1
 10
9.6667
 20
6.5
 30
0
 70
     0
  0
SEQEND
  0
POLYLINE
  8
LAYER1
  6
CONTINUOUS
 62
     7
 66
     1
 70
     0
 40
0.0039
 41
0.0039
  0
VERTEX
  8
LAYER1
 10
9.2917
 20
6.5
 30
0
 70
     0
  0
VERTEX
  8
LAYER1
 10
9.2917
 20
6.5
 30
0
 70
     0
  0
VERTEX
  8
LAYER1
 10
9.3056
 20
6.5278
 30
0
 70
     0
  0
VERTEX
  8
LAYER1
 10
9.3056
 20
6.5278
 30
0
 70
     0
  0
VERTEX
  8
LAYER1
 10
9.3194
 20
6.5417
 30
0
 70
     0
  0
VERTEX
  8
LAYER1
 10
9.3333
 20
6.5556
 30
0
 70
     0
  0
VERTEX
  8
LAYER1
 10
9.3472
 20
6.5556
 30
0
 70
     0
  0
VERTEX
  8
LAYER1
 10
9.3611
 20
6.5556
 30
0
 70
     0
  0
VERTEX
  8
LAYER1
 10
9.3889
 20
6.5417
 30
0
 70
     0
  0
VERTEX
  8
LAYER1
 10
9.3889
 20
6.5278
 30
0
 70
     0
  0
VERTEX
  8
LAYER1
 10
9.4028
 20
6.5139
 30
0
 70
     0
  0
VERTEX
  8
LAYER1
 10
9.4167
 20
6.5
 30
0
 70
     0
  0
VERTEX
  8
LAYER1
 10
9.4167
 20
6.5
 30
0
 70
     0
  0
SEQEND
  0
POLYLINE
  8
LAYER1
  6
CONTINUOUS
 62
     7
 66
     1
 70
     0
 40
0.0039
 41
0.0039
  0
VERTEX
  8
LAYER1
 10
9.7917
 20
6.5
 30
0
 70
     0
  0
VERTEX
  8
LAYER1
 10
9.7917
 20
6.3611
 30
0
 70
     0
  0
VERTEX
  8
LAYER1
 10
9.2917
 20
6.3611
 30
0
 70
     0
  0
VERTEX
  8
LAYER1
 10
9.2917
 20
6.5
 30
0
 70
     0
  0
SEQEND
  0
LINE
  8
LAYER1
  6
CONTINUOUS
 62
     7
 10
9.4167
 20
6.3611
 30
0
 11
9.4167
 21
6.5
 31
0
  0
LINE
  8
LAYER1
  6
CONTINUOUS
 62
     7
 10
9.6667
 20
6.3611
 30
0
 11
9.6667
 21
6.5
 31
0
  0
ENDBLK
  8
LAYER1
  0
BLOCK
  8
LAYER1
  2
Group22
 70
     0
 10
0
 20
0
 30
0
  0
LINE
  8
LAYER1
  6
CONTINUOUS
 62
     7
 10
9.3472
 20
6.5556
 30
0
 11
9.7222
 21
6.5556
 31
0
  0
POLYLINE
  8
LAYER1
  6
CONTINUOUS
 62
     7
 66
     1
 70
     0
 40
0.0039
 41
0.0039
  0
VERTEX
  8
LAYER1
 10
10.6597
 20
5.875
 30
0
 70
     0
  0
VERTEX
  8
LAYER1
 10
10.5846
 20
5.8837
 30
0
 70
     0
  0
VERTEX
  8
LAYER1
 10
10.5191
 20
5.9097
 30
0
 70
     0
  0
VERTEX
  8
LAYER1
 10
10.4631
 20
5.9531
 30
0
 70
     0
  0
VERTEX
  8
LAYER1
 10
10.4167
 20
6.0139
 30
0
 70
     0
  0
VERTEX
  8
LAYER1
 10
10.4167
 20
6.0139
 30
0
 70
     0
  0
VERTEX
  8
LAYER1
 10
10.3854
 20
6.0833
 30
0
 70
     0
  0
VERTEX
  8
LAYER1
 10
10.375
 20
6.1528
 30
0
 70
     0
  0
VERTEX
  8
LAYER1
 10
10.3854
 20
6.2222
 30
0
 70
     0
  0
VERTEX
  8
LAYER1
 10
10.4167
 20
6.2917
 30
0
 70
     0
  0
VERTEX
  8
LAYER1
 10
10.4167
 20
6.2917
 30
0
 70
     0
  0
VERTEX
  8
LAYER1
 10
10.4631
 20
6.3524
 30
0
 70
     0
  0
VERTEX
  8
LAYER1
 10
10.5191
 20
6.3958
 30
0
 70
     0
  0
VERTEX
  8
LAYER1
 10
10.5846
 20
6.4219
 30
0
 70
     0
  0
VERTEX
  8
LAYER1
 10
10.6597
 20
6.4306
 30
0
 70
     0
  0
VERTEX
  8
LAYER1
 10
10.6597
 20
6.4306
 30
0
 70
     0
  0
VERTEX
  8
LAYER1
 10
10.7348
 20
6.4219
 30
0
 70
     0
  0
VERTEX
  8
LAYER1
 10
10.8003
 20
6.3958
 30
0
 70
     0
  0
VERTEX
  8
LAYER1
 10
10.8563
 20
6.3524
 30
0
 70
     0
  0
VERTEX
  8
LAYER1
 10
10.9028
 20
6.2917
 30
0
 70
     0
  0
VERTEX
  8
LAYER1
 10
10.9028
 20
6.2917
 30
0
 70
     0
  0
VERTEX
  8
LAYER1
 10
10.934
 20
6.2222
 30
0
 70
     0
  0
VERTEX
  8
LAYER1
 10
10.9444
 20
6.1528
 30
0
 70
     0
  0
VERTEX
  8
LAYER1
 10
10.934
 20
6.0833
 30
0
 70
     0
  0
VERTEX
  8
LAYER1
 10
10.9028
 20
6.0139
 30
0
 70
     0
  0
VERTEX
  8
LAYER1
 10
10.9028
 20
6.0139
 30
0
 70
     0
  0
VERTEX
  8
LAYER1
 10
10.8563
 20
5.9531
 30
0
 70
     0
  0
VERTEX
  8
LAYER1
 10
10.8003
 20
5.9097
 30
0
 70
     0
  0
VERTEX
  8
LAYER1
 10
10.7348
 20
5.8837
 30
0
 70
     0
  0
VERTEX
  8
LAYER1
 10
10.6597
 20
5.875
 30
0
 70
     0
  0
SEQEND
  0
CIRCLE
  8
LAYER1
 10
10.6597
 20
6.1458
 30
0
 40
0.2847
  0
CIRCLE
  8
LAYER1
 10
10.6667
 20
6.1389
 30
0
 40
0.1944
  0
ENDBLK
  8
LAYER1
  0
BLOCK
  8
LAYER1
  2
Group23
 70
     0
 10
0
 20
0
 30
0
  0
LINE
  8
LAYER1
  6
CONTINUOUS
 62
     7
 10
10.3333
 20
6.7083
 30
0
 11
11
 21
6.7083
 31
0
  0
LINE
  8
LAYER1
  6
CONTINUOUS
 62
     7
 10
10.5
 20
6.4583
 30
0
 11
10.5
 21
6.7083
 31
0
  0
POLYLINE
  8
LAYER1
  6
CONTINUOUS
 62
     7
 66
     1
 70
     0
 40
0.0039
 41
0.0039
  0
VERTEX
  8
LAYER1
 10
10.8194
 20
6.7083
 30
0
 70
     0
  0
VERTEX
  8
LAYER1
 10
10.8333
 20
6.7361
 30
0
 70
     0
  0
VERTEX
  8
LAYER1
 10
10.8472
 20
6.7639
 30
0
 70
     0
  0
VERTEX
  8
LAYER1
 10
10.8472
 20
6.7639
 30
0
 70
     0
  0
VERTEX
  8
LAYER1
 10
10.8611
 20
6.7778
 30
0
 70
     0
  0
VERTEX
  8
LAYER1
 10
10.9028
 20
6.7917
 30
0
 70
     0
  0
VERTEX
  8
LAYER1
 10
10.9167
 20
6.7917
 30
0
 70
     0
  0
VERTEX
  8
LAYER1
 10
10.9306
 20
6.7917
 30
0
 70
     0
  0
VERTEX
  8
LAYER1
 10
10.9583
 20
6.7778
 30
0
 70
     0
  0
VERTEX
  8
LAYER1
 10
10.9722
 20
6.7639
 30
0
 70
     0
  0
VERTEX
  8
LAYER1
 10
10.9861
 20
6.75
 30
0
 70
     0
  0
VERTEX
  8
LAYER1
 10
11
 20
6.7222
 30
0
 70
     0
  0
VERTEX
  8
LAYER1
 10
11
 20
6.7083
 30
0
 70
     0
  0
SEQEND
  0
POLYLINE
  8
LAYER1
  6
CONTINUOUS
 62
     7
 66
     1
 70
     0
 40
0.0039
 41
0.0039
  0
VERTEX
  8
LAYER1
 10
10.5
 20
6.7083
 30
0
 70
     0
  0
VERTEX
  8
LAYER1
 10
10.5
 20
6.7083
 30
0
 70
     0
  0
VERTEX
  8
LAYER1
 10
10.5139
 20
6.7361
 30
0
 70
     0
  0
VERTEX
  8
LAYER1
 10
10.5139
 20
6.7361
 30
0
 70
     0
  0
VERTEX
  8
LAYER1
 10
10.5278
 20
6.75
 30
0
 70
     0
  0
VERTEX
  8
LAYER1
 10
10.5556
 20
6.7639
 30
0
 70
     0
  0
VERTEX
  8
LAYER1
 10
10.5972
 20
6.7778
 30
0
 70
     0
  0
VERTEX
  8
LAYER1
 10
10.6528
 20
6.7917
 30
0
 70
     0
  0
VERTEX
  8
LAYER1
 10
10.6667
 20
6.7917
 30
0
 70
     0
  0
VERTEX
  8
LAYER1
 10
10.6944
 20
6.7917
 30
0
 70
     0
  0
VERTEX
  8
LAYER1
 10
10.7361
 20
6.7778
 30
0
 70
     0
  0
VERTEX
  8
LAYER1
 10
10.7639
 20
6.7639
 30
0
 70
     0
  0
VERTEX
  8
LAYER1
 10
10.7917
 20
6.75
 30
0
 70
     0
  0
VERTEX
  8
LAYER1
 10
10.8056
 20
6.7361
 30
0
 70
     0
  0
VERTEX
  8
LAYER1
 10
10.8194
 20
6.7222
 30
0
 70
     0
  0
VERTEX
  8
LAYER1
 10
10.8194
 20
6.7083
 30
0
 70
     0
  0
VERTEX
  8
LAYER1
 10
10.8194
 20
6.7083
 30
0
 70
     0
  0
SEQEND
  0
POLYLINE
  8
LAYER1
  6
CONTINUOUS
 62
     7
 66
     1
 70
     0
 40
0.0039
 41
0.0039
  0
VERTEX
  8
LAYER1
 10
10.3333
 20
6.7083
 30
0
 70
     0
  0
VERTEX
  8
LAYER1
 10
10.3333
 20
6.7222
 30
0
 70
     0
  0
VERTEX
  8
LAYER1
 10
10.3472
 20
6.75
 30
0
 70
     0
  0
VERTEX
  8
LAYER1
 10
10.3611
 20
6.7639
 30
0
 70
     0
  0
VERTEX
  8
LAYER1
 10
10.375
 20
6.7778
 30
0
 70
     0
  0
VERTEX
  8
LAYER1
 10
10.4028
 20
6.7917
 30
0
 70
     0
  0
VERTEX
  8
LAYER1
 10
10.4167
 20
6.7917
 30
0
 70
     0
  0
VERTEX
  8
LAYER1
 10
10.4444
 20
6.7917
 30
0
 70
     0
  0
VERTEX
  8
LAYER1
 10
10.4722
 20
6.7778
 30
0
 70
     0
  0
VERTEX
  8
LAYER1
 10
10.4722
 20
6.7639
 30
0
 70
     0
  0
VERTEX
  8
LAYER1
 10
10.4861
 20
6.75
 30
0
 70
     0
  0
VERTEX
  8
LAYER1
 10
10.5
 20
6.7222
 30
0
 70
     0
  0
VERTEX
  8
LAYER1
 10
10.5
 20
6.7083
 30
0
 70
     0
  0
SEQEND
  0
POLYLINE
  8
LAYER1
  6
CONTINUOUS
 62
     7
 66
     1
 70
     0
 40
0.0039
 41
0.0039
  0
VERTEX
  8
LAYER1
 10
11
 20
6.7083
 30
0
 70
     0
  0
VERTEX
  8
LAYER1
 10
11
 20
6.4583
 30
0
 70
     0
  0
VERTEX
  8
LAYER1
 10
10.3333
 20
6.4583
 30
0
 70
     0
  0
VERTEX
  8
LAYER1
 10
10.3333
 20
6.7083
 30
0
 70
     0
  0
SEQEND
  0
LINE
  8
LAYER1
  6
CONTINUOUS
 62
     7
 10
10.8194
 20
6.4583
 30
0
 11
10.8194
 21
6.7083
 31
0
  0
ENDBLK
  8
LAYER1
  0
BLOCK
  8
LAYER1
  2
Group24
 70
     0
 10
0
 20
0
 30
0
  0
LINE
  8
LAYER1
  6
CONTINUOUS
 62
     7
 10
10.4167
 20
6.7917
 30
0
 11
10.9167
 21
6.7917
 31
0
  0
POLYLINE
  8
LAYER1
  6
CONTINUOUS
 62
     7
 66
     1
 70
     0
 40
0.0039
 41
0.0039
  0
VERTEX
  8
LAYER1
 10
11.9792
 20
5.875
 30
0
 70
     0
  0
VERTEX
  8
LAYER1
 10
11.878
 20
5.8867
 30
0
 70
     0
  0
VERTEX
  8
LAYER1
 10
11.7899
 20
5.9219
 30
0
 70
     0
  0
VERTEX
  8
LAYER1
 10
11.7148
 20
5.9805
 30
0
 70
     0
  0
VERTEX
  8
LAYER1
 10
11.6528
 20
6.0625
 30
0
 70
     0
  0
VERTEX
  8
LAYER1
 10
11.6528
 20
6.0625
 30
0
 70
     0
  0
VERTEX
  8
LAYER1
 10
11.6111
 20
6.1562
 30
0
 70
     0
  0
VERTEX
  8
LAYER1
 10
11.5972
 20
6.25
 30
0
 70
     0
  0
VERTEX
  8
LAYER1
 10
11.6111
 20
6.3437
 30
0
 70
     0
  0
VERTEX
  8
LAYER1
 10
11.6528
 20
6.4375
 30
0
 70
     0
  0
VERTEX
  8
LAYER1
 10
11.6528
 20
6.4375
 30
0
 70
     0
  0
VERTEX
  8
LAYER1
 10
11.7148
 20
6.5195
 30
0
 70
     0
  0
VERTEX
  8
LAYER1
 10
11.7899
 20
6.5781
 30
0
 70
     0
  0
VERTEX
  8
LAYER1
 10
11.878
 20
6.6133
 30
0
 70
     0
  0
VERTEX
  8
LAYER1
 10
11.9792
 20
6.625
 30
0
 70
     0
  0
VERTEX
  8
LAYER1
 10
11.9792
 20
6.625
 30
0
 70
     0
  0
VERTEX
  8
LAYER1
 10
12.0799
 20
6.6133
 30
0
 70
     0
  0
VERTEX
  8
LAYER1
 10
12.1667
 20
6.5781
 30
0
 70
     0
  0
VERTEX
  8
LAYER1
 10
12.2396
 20
6.5195
 30
0
 70
     0
  0
VERTEX
  8
LAYER1
 10
12.2986
 20
6.4375
 30
0
 70
     0
  0
VERTEX
  8
LAYER1
 10
12.2986
 20
6.4375
 30
0
 70
     0
  0
VERTEX
  8
LAYER1
 10
12.3377
 20
6.3437
 30
0
 70
     0
  0
VERTEX
  8
LAYER1
 10
12.3507
 20
6.25
 30
0
 70
     0
  0
VERTEX
  8
LAYER1
 10
12.3377
 20
6.1562
 30
0
 70
     0
  0
VERTEX
  8
LAYER1
 10
12.2986
 20
6.0625
 30
0
 70
     0
  0
VERTEX
  8
LAYER1
 10
12.2986
 20
6.0625
 30
0
 70
     0
  0
VERTEX
  8
LAYER1
 10
12.2396
 20
5.9805
 30
0
 70
     0
  0
VERTEX
  8
LAYER1
 10
12.1667
 20
5.9219
 30
0
 70
     0
  0
VERTEX
  8
LAYER1
 10
12.0799
 20
5.8867
 30
0
 70
     0
  0
VERTEX
  8
LAYER1
 10
11.9792
 20
5.875
 30
0
 70
     0
  0
SEQEND
  0
CIRCLE
  8
LAYER1
 10
11.9792
 20
6.2431
 30
0
 40
0.3819
  0
CIRCLE
  8
LAYER1
 10
11.9792
 20
6.2431
 30
0
 40
0.2569
  0
ENDBLK
  8
LAYER1
  0
BLOCK
  8
LAYER1
  2
Group25
 70
     0
 10
0
 20
0
 30
0
  0
LINE
  8
LAYER1
  6
CONTINUOUS
 62
     7
 10
11.5417
 20
7.0139
 30
0
 11
12.4028
 21
7.0139
 31
0
  0
POLYLINE
  8
LAYER1
  6
CONTINUOUS
 62
     7
 66
     1
 70
     0
 40
0.0039
 41
0.0039
  0
VERTEX
  8
LAYER1
 10
12.1944
 20
7.0139
 30
0
 70
     0
  0
VERTEX
  8
LAYER1
 10
12.1944
 20
7.0278
 30
0
 70
     0
  0
VERTEX
  8
LAYER1
 10
12.2083
 20
7.0556
 30
0
 70
     0
  0
VERTEX
  8
LAYER1
 10
12.2222
 20
7.0694
 30
0
 70
     0
  0
VERTEX
  8
LAYER1
 10
12.2361
 20
7.0833
 30
0
 70
     0
  0
VERTEX
  8
LAYER1
 10
12.2778
 20
7.0972
 30
0
 70
     0
  0
VERTEX
  8
LAYER1
 10
12.3056
 20
7.0972
 30
0
 70
     0
  0
VERTEX
  8
LAYER1
 10
12.3333
 20
7.0972
 30
0
 70
     0
  0
VERTEX
  8
LAYER1
 10
12.3611
 20
7.0833
 30
0
 70
     0
  0
VERTEX
  8
LAYER1
 10
12.375
 20
7.0694
 30
0
 70
     0
  0
VERTEX
  8
LAYER1
 10
12.3889
 20
7.0556
 30
0
 70
     0
  0
VERTEX
  8
LAYER1
 10
12.4028
 20
7.0278
 30
0
 70
     0
  0
VERTEX
  8
LAYER1
 10
12.4028
 20
7.0139
 30
0
 70
     0
  0
SEQEND
  0
POLYLINE
  8
LAYER1
  6
CONTINUOUS
 62
     7
 66
     1
 70
     0
 40
0.0039
 41
0.0039
  0
VERTEX
  8
LAYER1
 10
11.7639
 20
7.0139
 30
0
 70
     0
  0
VERTEX
  8
LAYER1
 10
11.7778
 20
7.0278
 30
0
 70
     0
  0
VERTEX
  8
LAYER1
 10
11.8333
 20
7.0694
 30
0
 70
     0
  0
VERTEX
  8
LAYER1
 10
11.875
 20
7.0833
 30
0
 70
     0
  0
VERTEX
  8
LAYER1
 10
11.9444
 20
7.0972
 30
0
 70
     0
  0
VERTEX
  8
LAYER1
 10
11.9722
 20
7.0972
 30
0
 70
     0
  0
VERTEX
  8
LAYER1
 10
12
 20
7.0972
 30
0
 70
     0
  0
VERTEX
  8
LAYER1
 10
12.0694
 20
7.0833
 30
0
 70
     0
  0
VERTEX
  8
LAYER1
 10
12.1111
 20
7.0694
 30
0
 70
     0
  0
VERTEX
  8
LAYER1
 10
12.1806
 20
7.0278
 30
0
 70
     0
  0
VERTEX
  8
LAYER1
 10
12.1944
 20
7.0139
 30
0
 70
     0
  0
SEQEND
  0
POLYLINE
  8
LAYER1
  6
CONTINUOUS
 62
     7
 66
     1
 70
     0
 40
0.0039
 41
0.0039
  0
VERTEX
  8
LAYER1
 10
11.5417
 20
7.0139
 30
0
 70
     0
  0
VERTEX
  8
LAYER1
 10
11.5556
 20
7.0278
 30
0
 70
     0
  0
VERTEX
  8
LAYER1
 10
11.5694
 20
7.0556
 30
0
 70
     0
  0
VERTEX
  8
LAYER1
 10
11.5694
 20
7.0694
 30
0
 70
     0
  0
VERTEX
  8
LAYER1
 10
11.5833
 20
7.0833
 30
0
 70
     0
  0
VERTEX
  8
LAYER1
 10
11.625
 20
7.0972
 30
0
 70
     0
  0
VERTEX
  8
LAYER1
 10
11.6528
 20
7.0972
 30
0
 70
     0
  0
VERTEX
  8
LAYER1
 10
11.6806
 20
7.0972
 30
0
 70
     0
  0
VERTEX
  8
LAYER1
 10
11.7222
 20
7.0833
 30
0
 70
     0
  0
VERTEX
  8
LAYER1
 10
11.7361
 20
7.0694
 30
0
 70
     0
  0
VERTEX
  8
LAYER1
 10
11.75
 20
7.0556
 30
0
 70
     0
  0
VERTEX
  8
LAYER1
 10
11.7639
 20
7.0278
 30
0
 70
     0
  0
VERTEX
  8
LAYER1
 10
11.7639
 20
7.0139
 30
0
 70
     0
  0
SEQEND
  0
POLYLINE
  8
LAYER1
  6
CONTINUOUS
 62
     7
 66
     1
 70
     0
 40
0.0039
 41
0.0039
  0
VERTEX
  8
LAYER1
 10
12.4028
 20
7.0139
 30
0
 70
     0
  0
VERTEX
  8
LAYER1
 10
12.4028
 20
6.6667
 30
0
 70
     0
  0
VERTEX
  8
LAYER1
 10
11.5417
 20
6.6667
 30
0
 70
     0
  0
VERTEX
  8
LAYER1
 10
11.5417
 20
7.0139
 30
0
 70
     0
  0
SEQEND
  0
LINE
  8
LAYER1
  6
CONTINUOUS
 62
     7
 10
11.7639
 20
6.6667
 30
0
 11
11.7639
 21
7.0139
 31
0
  0
LINE
  8
LAYER1
  6
CONTINUOUS
 62
     7
 10
12.1944
 20
6.6667
 30
0
 11
12.1944
 21
7.0139
 31
0
  0
ENDBLK
  8
LAYER1
  0
BLOCK
  8
LAYER1
  2
Group26
 70
     0
 10
0
 20
0
 30
0
  0
LINE
  8
LAYER1
  6
CONTINUOUS
 62
     7
 10
11.6528
 20
7.0972
 30
0
 11
12.3056
 21
7.0972
 31
0
  0
POLYLINE
  8
LAYER1
  6
CONTINUOUS
 62
     7
 66
     1
 70
     0
 40
0.0039
 41
0.0039
  0
VERTEX
  8
LAYER1
 10
11.3472
 20
8.7778
 30
0
 70
     0
  0
VERTEX
  8
LAYER1
 10
11.375
 20
8.7917
 30
0
 70
     0
  0
VERTEX
  8
LAYER1
 10
11.4167
 20
8.8056
 30
0
 70
     0
  0
VERTEX
  8
LAYER1
 10
11.4306
 20
8.8056
 30
0
 70
     0
  0
VERTEX
  8
LAYER1
 10
11.4583
 20
8.8056
 30
0
 70
     0
  0
VERTEX
  8
LAYER1
 10
11.5139
 20
8.7917
 30
0
 70
     0
  0
VERTEX
  8
LAYER1
 10
11.5278
 20
8.7778
 30
0
 70
     0
  0
SEQEND
  0
LINE
  8
LAYER1
  6
CONTINUOUS
 62
     7
 10
11.25
 20
8.7778
 30
0
 11
11.6111
 21
8.7778
 31
0
  0
POLYLINE
  8
LAYER1
  6
CONTINUOUS
 62
     7
 66
     1
 70
     0
 40
0.0039
 41
0.0039
  0
VERTEX
  8
LAYER1
 10
11.5278
 20
8.7778
 30
0
 70
     0
  0
VERTEX
  8
LAYER1
 10
11.5278
 20
8.7917
 30
0
 70
     0
  0
VERTEX
  8
LAYER1
 10
11.5278
 20
8.7917
 30
0
 70
     0
  0
VERTEX
  8
LAYER1
 10
11.5556
 20
8.8056
 30
0
 70
     0
  0
VERTEX
  8
LAYER1
 10
11.5694
 20
8.8056
 30
0
 70
     0
  0
VERTEX
  8
LAYER1
 10
11.5833
 20
8.8056
 30
0
 70
     0
  0
VERTEX
  8
LAYER1
 10
11.6111
 20
8.7917
 30
0
 70
     0
  0
VERTEX
  8
LAYER1
 10
11.6111
 20
8.7917
 30
0
 70
     0
  0
VERTEX
  8
LAYER1
 10
11.6111
 20
8.7778
 30
0
 70
     0
  0
SEQEND
  0
POLYLINE
  8
LAYER1
  6
CONTINUOUS
 62
     7
 66
     1
 70
     0
 40
0.0039
 41
0.0039
  0
VERTEX
  8
LAYER1
 10
11.25
 20
8.7778
 30
0
 70
     0
  0
VERTEX
  8
LAYER1
 10
11.25
 20
8.7778
 30
0
 70
     0
  0
VERTEX
  8
LAYER1
 10
11.2639
 20
8.7917
 30
0
 70
     0
  0
VERTEX
  8
LAYER1
 10
11.2639
 20
8.7917
 30
0
 70
     0
  0
VERTEX
  8
LAYER1
 10
11.2639
 20
8.7917
 30
0
 70
     0
  0
VERTEX
  8
LAYER1
 10
11.2917
 20
8.8056
 30
0
 70
     0
  0
VERTEX
  8
LAYER1
 10
11.2917
 20
8.8056
 30
0
 70
     0
  0
VERTEX
  8
LAYER1
 10
11.3056
 20
8.8056
 30
0
 70
     0
  0
VERTEX
  8
LAYER1
 10
11.3333
 20
8.7917
 30
0
 70
     0
  0
VERTEX
  8
LAYER1
 10
11.3333
 20
8.7917
 30
0
 70
     0
  0
VERTEX
  8
LAYER1
 10
11.3472
 20
8.7778
 30
0
 70
     0
  0
SEQEND
  0
LINE
  8
LAYER1
  6
CONTINUOUS
 62
     7
 10
11.2917
 20
8.8056
 30
0
 11
11.5694
 21
8.8056
 31
0
  0
POLYLINE
  8
LAYER1
  6
CONTINUOUS
 62
     7
 66
     1
 70
     0
 40
0.0039
 41
0.0039
  0
VERTEX
  8
LAYER1
 10
11.6111
 20
8.7778
 30
0
 70
     0
  0
VERTEX
  8
LAYER1
 10
11.6111
 20
8.6944
 30
0
 70
     0
  0
VERTEX
  8
LAYER1
 10
11.25
 20
8.6944
 30
0
 70
     0
  0
VERTEX
  8
LAYER1
 10
11.25
 20
8.7778
 30
0
 70
     0
  0
SEQEND
  0
LINE
  8
LAYER1
  6
CONTINUOUS
 62
     7
 10
11.3472
 20
8.6944
 30
0
 11
11.3472
 21
8.7778
 31
0
  0
ENDBLK
  8
LAYER1
  0
BLOCK
  8
LAYER1
  2
Group27
 70
     0
 10
0
 20
0
 30
0
  0
LINE
  8
LAYER1
  6
CONTINUOUS
 62
     7
 10
11.5278
 20
8.6944
 30
0
 11
11.5278
 21
8.7778
 31
0
  0
POLYLINE
  8
LAYER1
  6
CONTINUOUS
 62
     7
 66
     1
 70
     0
 40
0.0039
 41
0.0039
  0
VERTEX
  8
LAYER1
 10
11.4375
 20
8.3472
 30
0
 70
     0
  0
VERTEX
  8
LAYER1
 10
11.395
 20
8.352
 30
0
 70
     0
  0
VERTEX
  8
LAYER1
 10
11.3576
 20
8.3663
 30
0
 70
     0
  0
VERTEX
  8
LAYER1
 10
11.3255
 20
8.3902
 30
0
 70
     0
  0
VERTEX
  8
LAYER1
 10
11.2986
 20
8.4236
 30
0
 70
     0
  0
VERTEX
  8
LAYER1
 10
11.2986
 20
8.4236
 30
0
 70
     0
  0
VERTEX
  8
LAYER1
 10
11.2804
 20
8.4622
 30
0
 70
     0
  0
VERTEX
  8
LAYER1
 10
11.2743
 20
8.5017
 30
0
 70
     0
  0
VERTEX
  8
LAYER1
 10
11.2804
 20
8.5421
 30
0
 70
     0
  0
VERTEX
  8
LAYER1
 10
11.2986
 20
8.5833
 30
0
 70
     0
  0
VERTEX
  8
LAYER1
 10
11.2986
 20
8.5833
 30
0
 70
     0
  0
VERTEX
  8
LAYER1
 10
11.3255
 20
8.6198
 30
0
 70
     0
  0
VERTEX
  8
LAYER1
 10
11.3576
 20
8.6458
 30
0
 70
     0
  0
VERTEX
  8
LAYER1
 10
11.395
 20
8.6614
 30
0
 70
     0
  0
VERTEX
  8
LAYER1
 10
11.4375
 20
8.6667
 30
0
 70
     0
  0
VERTEX
  8
LAYER1
 10
11.4375
 20
8.6667
 30
0
 70
     0
  0
VERTEX
  8
LAYER1
 10
11.4796
 20
8.6614
 30
0
 70
     0
  0
VERTEX
  8
LAYER1
 10
11.5156
 20
8.6458
 30
0
 70
     0
  0
VERTEX
  8
LAYER1
 10
11.5456
 20
8.6198
 30
0
 70
     0
  0
VERTEX
  8
LAYER1
 10
11.5694
 20
8.5833
 30
0
 70
     0
  0
VERTEX
  8
LAYER1
 10
11.5694
 20
8.5833
 30
0
 70
     0
  0
VERTEX
  8
LAYER1
 10
11.5851
 20
8.5421
 30
0
 70
     0
  0
VERTEX
  8
LAYER1
 10
11.5903
 20
8.5017
 30
0
 70
     0
  0
VERTEX
  8
LAYER1
 10
11.5851
 20
8.4622
 30
0
 70
     0
  0
VERTEX
  8
LAYER1
 10
11.5694
 20
8.4236
 30
0
 70
     0
  0
VERTEX
  8
LAYER1
 10
11.5694
 20
8.4236
 30
0
 70
     0
  0
VERTEX
  8
LAYER1
 10
11.5456
 20
8.3902
 30
0
 70
     0
  0
VERTEX
  8
LAYER1
 10
11.5156
 20
8.3663
 30
0
 70
     0
  0
VERTEX
  8
LAYER1
 10
11.4796
 20
8.352
 30
0
 70
     0
  0
VERTEX
  8
LAYER1
 10
11.4375
 20
8.3472
 30
0
 70
     0
  0
SEQEND
  0
CIRCLE
  8
LAYER1
 10
11.4375
 20
8.5069
 30
0
 40
0.1597
  0
CIRCLE
  8
LAYER1
 10
11.4375
 20
8.4931
 30
0
 40
0.0764
  0
ENDBLK
  8
LAYER1
  0
BLOCK
  8
LAYER1
  2
Group28
 70
     0
 10
0
 20
0
 30
0
  0
POLYLINE
  8
LAYER1
  6
CONTINUOUS
 62
     7
 66
     1
 70
     0
 40
0.0039
 41
0.0039
  0
VERTEX
  8
LAYER1
 10
13.3472
 20
5.875
 30
0
 70
     0
  0
VERTEX
  8
LAYER1
 10
13.23
 20
5.8885
 30
0
 70
     0
  0
VERTEX
  8
LAYER1
 10
13.1285
 20
5.9288
 30
0
 70
     0
  0
VERTEX
  8
LAYER1
 10
13.0425
 20
5.9961
 30
0
 70
     0
  0
VERTEX
  8
LAYER1
 10
12.9722
 20
6.0903
 30
0
 70
     0
  0
VERTEX
  8
LAYER1
 10
12.9722
 20
6.0903
 30
0
 70
     0
  0
VERTEX
  8
LAYER1
 10
12.9449
 20
6.1442
 30
0
 70
     0
  0
VERTEX
  8
LAYER1
 10
12.9253
 20
6.1983
 30
0
 70
     0
  0
VERTEX
  8
LAYER1
 10
12.9136
 20
6.2527
 30
0
 70
     0
  0
VERTEX
  8
LAYER1
 10
12.9097
 20
6.3073
 30
0
 70
     0
  0
VERTEX
  8
LAYER1
 10
12.9136
 20
6.3621
 30
0
 70
     0
  0
VERTEX
  8
LAYER1
 10
12.9253
 20
6.4171
 30
0
 70
     0
  0
VERTEX
  8
LAYER1
 10
12.9449
 20
6.4723
 30
0
 70
     0
  0
VERTEX
  8
LAYER1
 10
12.9722
 20
6.5278
 30
0
 70
     0
  0
VERTEX
  8
LAYER1
 10
12.9722
 20
6.5278
 30
0
 70
     0
  0
VERTEX
  8
LAYER1
 10
13.0425
 20
6.625
 30
0
 70
     0
  0
VERTEX
  8
LAYER1
 10
13.1285
 20
6.6944
 30
0
 70
     0
  0
VERTEX
  8
LAYER1
 10
13.23
 20
6.7361
 30
0
 70
     0
  0
VERTEX
  8
LAYER1
 10
13.3472
 20
6.75
 30
0
 70
     0
  0
VERTEX
  8
LAYER1
 10
13.3472
 20
6.75
 30
0
 70
     0
  0
VERTEX
  8
LAYER1
 10
13.4648
 20
6.7361
 30
0
 70
     0
  0
VERTEX
  8
LAYER1
 10
13.5677
 20
6.6944
 30
0
 70
     0
  0
VERTEX
  8
LAYER1
 10
13.6558
 20
6.625
 30
0
 70
     0
  0
VERTEX
  8
LAYER1
 10
13.7292
 20
6.5278
 30
0
 70
     0
  0
VERTEX
  8
LAYER1
 10
13.7292
 20
6.5278
 30
0
 70
     0
  0
VERTEX
  8
LAYER1
 10
13.758
 20
6.4723
 30
0
 70
     0
  0
VERTEX
  8
LAYER1
 10
13.7786
 20
6.4171
 30
0
 70
     0
  0
VERTEX
  8
LAYER1
 10
13.791
 20
6.3621
 30
0
 70
     0
  0
VERTEX
  8
LAYER1
 10
13.7951
 20
6.3073
 30
0
 70
     0
  0
VERTEX
  8
LAYER1
 10
13.791
 20
6.2527
 30
0
 70
     0
  0
VERTEX
  8
LAYER1
 10
13.7786
 20
6.1983
 30
0
 70
     0
  0
VERTEX
  8
LAYER1
 10
13.758
 20
6.1442
 30
0
 70
     0
  0
VERTEX
  8
LAYER1
 10
13.7292
 20
6.0903
 30
0
 70
     0
  0
VERTEX
  8
LAYER1
 10
13.7292
 20
6.0903
 30
0
 70
     0
  0
VERTEX
  8
LAYER1
 10
13.6558
 20
5.9961
 30
0
 70
     0
  0
VERTEX
  8
LAYER1
 10
13.5677
 20
5.9288
 30
0
 70
     0
  0
VERTEX
  8
LAYER1
 10
13.4648
 20
5.8885
 30
0
 70
     0
  0
VERTEX
  8
LAYER1
 10
13.3472
 20
5.875
 30
0
 70
     0
  0
SEQEND
  0
CIRCLE
  8
LAYER1
 10
13.3611
 20
6.3056
 30
0
 40
0.4444
  0
CIRCLE
  8
LAYER1
 10
13.3611
 20
6.2917
 30
0
 40
0.2917
  0
ENDBLK
  8
LAYER1
  0
BLOCK
  8
LAYER1
  2
Group29
 70
     0
 10
0
 20
0
 30
0
  0
LINE
  8
LAYER1
  6
CONTINUOUS
 62
     7
 10
12.8472
 20
7.2222
 30
0
 11
13.8472
 21
7.2222
 31
0
  0
POLYLINE
  8
LAYER1
  6
CONTINUOUS
 62
     7
 66
     1
 70
     0
 40
0.0039
 41
0.0039
  0
VERTEX
  8
LAYER1
 10
13.5972
 20
7.2222
 30
0
 70
     0
  0
VERTEX
  8
LAYER1
 10
13.6111
 20
7.25
 30
0
 70
     0
  0
VERTEX
  8
LAYER1
 10
13.625
 20
7.2778
 30
0
 70
     0
  0
VERTEX
  8
LAYER1
 10
13.6389
 20
7.2917
 30
0
 70
     0
  0
VERTEX
  8
LAYER1
 10
13.6528
 20
7.3056
 30
0
 70
     0
  0
VERTEX
  8
LAYER1
 10
13.6806
 20
7.3194
 30
0
 70
     0
  0
VERTEX
  8
LAYER1
 10
13.6944
 20
7.3333
 30
0
 70
     0
  0
VERTEX
  8
LAYER1
 10
13.7083
 20
7.3333
 30
0
 70
     0
  0
VERTEX
  8
LAYER1
 10
13.7222
 20
7.3333
 30
0
 70
     0
  0
VERTEX
  8
LAYER1
 10
13.7361
 20
7.3333
 30
0
 70
     0
  0
VERTEX
  8
LAYER1
 10
13.75
 20
7.3333
 30
0
 70
     0
  0
VERTEX
  8
LAYER1
 10
13.7778
 20
7.3194
 30
0
 70
     0
  0
VERTEX
  8
LAYER1
 10
13.8056
 20
7.3056
 30
0
 70
     0
  0
VERTEX
  8
LAYER1
 10
13.8194
 20
7.2917
 30
0
 70
     0
  0
VERTEX
  8
LAYER1
 10
13.8333
 20
7.2778
 30
0
 70
     0
  0
VERTEX
  8
LAYER1
 10
13.8472
 20
7.2361
 30
0
 70
     0
  0
VERTEX
  8
LAYER1
 10
13.8472
 20
7.2222
 30
0
 70
     0
  0
SEQEND
  0
POLYLINE
  8
LAYER1
  6
CONTINUOUS
 62
     7
 66
     1
 70
     0
 40
0.0039
 41
0.0039
  0
VERTEX
  8
LAYER1
 10
13.0972
 20
7.2222
 30
0
 70
     0
  0
VERTEX
  8
LAYER1
 10
13.1111
 20
7.2361
 30
0
 70
     0
  0
VERTEX
  8
LAYER1
 10
13.1389
 20
7.2639
 30
0
 70
     0
  0
VERTEX
  8
LAYER1
 10
13.1806
 20
7.2917
 30
0
 70
     0
  0
VERTEX
  8
LAYER1
 10
13.2361
 20
7.3194
 30
0
 70
     0
  0
VERTEX
  8
LAYER1
 10
13.3194
 20
7.3333
 30
0
 70
     0
  0
VERTEX
  8
LAYER1
 10
13.3472
 20
7.3333
 30
0
 70
     0
  0
VERTEX
  8
LAYER1
 10
13.3889
 20
7.3333
 30
0
 70
     0
  0
VERTEX
  8
LAYER1
 10
13.4583
 20
7.3194
 30
0
 70
     0
  0
VERTEX
  8
LAYER1
 10
13.5278
 20
7.2917
 30
0
 70
     0
  0
VERTEX
  8
LAYER1
 10
13.5694
 20
7.2639
 30
0
 70
     0
  0
VERTEX
  8
LAYER1
 10
13.5972
 20
7.2361
 30
0
 70
     0
  0
VERTEX
  8
LAYER1
 10
13.5972
 20
7.2222
 30
0
 70
     0
  0
SEQEND
  0
POLYLINE
  8
LAYER1
  6
CONTINUOUS
 62
     7
 66
     1
 70
     0
 40
0.0039
 41
0.0039
  0
VERTEX
  8
LAYER1
 10
12.8472
 20
7.2222
 30
0
 70
     0
  0
VERTEX
  8
LAYER1
 10
12.8472
 20
7.2361
 30
0
 70
     0
  0
VERTEX
  8
LAYER1
 10
12.8611
 20
7.2778
 30
0
 70
     0
  0
VERTEX
  8
LAYER1
 10
12.875
 20
7.2917
 30
0
 70
     0
  0
VERTEX
  8
LAYER1
 10
12.8889
 20
7.3056
 30
0
 70
     0
  0
VERTEX
  8
LAYER1
 10
12.9167
 20
7.3194
 30
0
 70
     0
  0
VERTEX
  8
LAYER1
 10
12.9444
 20
7.3333
 30
0
 70
     0
  0
VERTEX
  8
LAYER1
 10
12.9583
 20
7.3333
 30
0
 70
     0
  0
VERTEX
  8
LAYER1
 10
12.9722
 20
7.3333
 30
0
 70
     0
  0
VERTEX
  8
LAYER1
 10
12.9861
 20
7.3333
 30
0
 70
     0
  0
VERTEX
  8
LAYER1
 10
13
 20
7.3333
 30
0
 70
     0
  0
VERTEX
  8
LAYER1
 10
13.0278
 20
7.3194
 30
0
 70
     0
  0
VERTEX
  8
LAYER1
 10
13.0417
 20
7.3056
 30
0
 70
     0
  0
VERTEX
  8
LAYER1
 10
13.0556
 20
7.2917
 30
0
 70
     0
  0
VERTEX
  8
LAYER1
 10
13.0694
 20
7.2778
 30
0
 70
     0
  0
VERTEX
  8
LAYER1
 10
13.0833
 20
7.2639
 30
0
 70
     0
  0
VERTEX
  8
LAYER1
 10
13.0972
 20
7.25
 30
0
 70
     0
  0
VERTEX
  8
LAYER1
 10
13.0972
 20
7.2361
 30
0
 70
     0
  0
VERTEX
  8
LAYER1
 10
13.0972
 20
7.2222
 30
0
 70
     0
  0
SEQEND
  0
POLYLINE
  8
LAYER1
  6
CONTINUOUS
 62
     7
 66
     1
 70
     0
 40
0.0039
 41
0.0039
  0
VERTEX
  8
LAYER1
 10
13.8472
 20
7.2222
 30
0
 70
     0
  0
VERTEX
  8
LAYER1
 10
13.8472
 20
6.8472
 30
0
 70
     0
  0
VERTEX
  8
LAYER1
 10
12.8472
 20
6.8472
 30
0
 70
     0
  0
VERTEX
  8
LAYER1
 10
12.8472
 20
7.2222
 30
0
 70
     0
  0
SEQEND
  0
LINE
  8
LAYER1
  6
CONTINUOUS
 62
     7
 10
13.0972
 20
6.8472
 30
0
 11
13.0972
 21
7.2222
 31
0
  0
LINE
  8
LAYER1
  6
CONTINUOUS
 62
     7
 10
13.5972
 20
6.8472
 30
0
 11
13.5972
 21
7.2222
 31
0
  0
ENDBLK
  8
LAYER1
  0
BLOCK
  8
LAYER1
  2
Group30
 70
     0
 10
0
 20
0
 30
0
  0
LINE
  8
LAYER1
  6
CONTINUOUS
 62
     7
 10
12.9722
 20
7.3333
 30
0
 11
13.7222
 21
7.3333
 31
0
  0
POLYLINE
  8
LAYER1
  6
CONTINUOUS
 62
     7
 66
     1
 70
     0
 40
0.0039
 41
0.0039
  0
VERTEX
  8
LAYER1
 10
10.6875
 20
2.9583
 30
0
 70
     0
  0
VERTEX
  8
LAYER1
 10
10.6219
 20
2.962
 30
0
 70
     0
  0
VERTEX
  8
LAYER1
 10
10.5603
 20
2.9731
 30
0
 70
     0
  0
VERTEX
  8
LAYER1
 10
10.5029
 20
2.9915
 30
0
 70
     0
  0
VERTEX
  8
LAYER1
 10
10.4496
 20
3.0174
 30
0
 70
     0
  0
VERTEX
  8
LAYER1
 10
10.4005
 20
3.0506
 30
0
 70
     0
  0
VERTEX
  8
LAYER1
 10
10.3555
 20
3.0911
 30
0
 70
     0
  0
VERTEX
  8
LAYER1
 10
10.3146
 20
3.1391
 30
0
 70
     0
  0
VERTEX
  8
LAYER1
 10
10.2778
 20
3.1944
 30
0
 70
     0
  0
VERTEX
  8
LAYER1
 10
10.2778
 20
3.1944
 30
0
 70
     0
  0
VERTEX
  8
LAYER1
 10
10.2474
 20
3.2535
 30
0
 70
     0
  0
VERTEX
  8
LAYER1
 10
10.2257
 20
3.3125
 30
0
 70
     0
  0
VERTEX
  8
LAYER1
 10
10.2127
 20
3.3715
 30
0
 70
     0
  0
VERTEX
  8
LAYER1
 10
10.2083
 20
3.4306
 30
0
 70
     0
  0
VERTEX
  8
LAYER1
 10
10.2127
 20
3.4896
 30
0
 70
     0
  0
VERTEX
  8
LAYER1
 10
10.2257
 20
3.5486
 30
0
 70
     0
  0
VERTEX
  8
LAYER1
 10
10.2474
 20
3.6076
 30
0
 70
     0
  0
VERTEX
  8
LAYER1
 10
10.2778
 20
3.6667
 30
0
 70
     0
  0
VERTEX
  8
LAYER1
 10
10.2778
 20
3.6667
 30
0
 70
     0
  0
VERTEX
  8
LAYER1
 10
10.3146
 20
3.722
 30
0
 70
     0
  0
VERTEX
  8
LAYER1
 10
10.3555
 20
3.77
 30
0
 70
     0
  0
VERTEX
  8
LAYER1
 10
10.4005
 20
3.8105
 30
0
 70
     0
  0
VERTEX
  8
LAYER1
 10
10.4496
 20
3.8437
 30
0
 70
     0
  0
VERTEX
  8
LAYER1
 10
10.5029
 20
3.8696
 30
0
 70
     0
  0
VERTEX
  8
LAYER1
 10
10.5603
 20
3.888
 30
0
 70
     0
  0
VERTEX
  8
LAYER1
 10
10.6219
 20
3.8991
 30
0
 70
     0
  0
VERTEX
  8
LAYER1
 10
10.6875
 20
3.9028
 30
0
 70
     0
  0
VERTEX
  8
LAYER1
 10
10.6875
 20
3.9028
 30
0
 70
     0
  0
VERTEX
  8
LAYER1
 10
10.753
 20
3.8991
 30
0
 70
     0
  0
VERTEX
  8
LAYER1
 10
10.8142
 20
3.888
 30
0
 70
     0
  0
VERTEX
  8
LAYER1
 10
10.8711
 20
3.8696
 30
0
 70
     0
  0
VERTEX
  8
LAYER1
 10
10.9236
 20
3.8437
 30
0
 70
     0
  0
VERTEX
  8
LAYER1
 10
10.9718
 20
3.8105
 30
0
 70
     0
  0
VERTEX
  8
LAYER1
 10
11.0156
 20
3.77
 30
0
 70
     0
  0
VERTEX
  8
LAYER1
 10
11.0551
 20
3.722
 30
0
 70
     0
  0
VERTEX
  8
LAYER1
 10
11.0903
 20
3.6667
 30
0
 70
     0
  0
VERTEX
  8
LAYER1
 10
11.0903
 20
3.6667
 30
0
 70
     0
  0
VERTEX
  8
LAYER1
 10
11.1191
 20
3.6076
 30
0
 70
     0
  0
VERTEX
  8
LAYER1
 10
11.1398
 20
3.5486
 30
0
 70
     0
  0
VERTEX
  8
LAYER1
 10
11.1521
 20
3.4896
 30
0
 70
     0
  0
VERTEX
  8
LAYER1
 10
11.1562
 20
3.4306
 30
0
 70
     0
  0
VERTEX
  8
LAYER1
 10
11.1521
 20
3.3715
 30
0
 70
     0
  0
VERTEX
  8
LAYER1
 10
11.1398
 20
3.3125
 30
0
 70
     0
  0
VERTEX
  8
LAYER1
 10
11.1191
 20
3.2535
 30
0
 70
     0
  0
VERTEX
  8
LAYER1
 10
11.0903
 20
3.1944
 30
0
 70
     0
  0
VERTEX
  8
LAYER1
 10
11.0903
 20
3.1944
 30
0
 70
     0
  0
VERTEX
  8
LAYER1
 10
11.0551
 20
3.1391
 30
0
 70
     0
  0
VERTEX
  8
LAYER1
 10
11.0156
 20
3.0911
 30
0
 70
     0
  0
VERTEX
  8
LAYER1
 10
10.9718
 20
3.0506
 30
0
 70
     0
  0
VERTEX
  8
LAYER1
 10
10.9236
 20
3.0174
 30
0
 70
     0
  0
VERTEX
  8
LAYER1
 10
10.8711
 20
2.9915
 30
0
 70
     0
  0
VERTEX
  8
LAYER1
 10
10.8142
 20
2.9731
 30
0
 70
     0
  0
VERTEX
  8
LAYER1
 10
10.753
 20
2.962
 30
0
 70
     0
  0
VERTEX
  8
LAYER1
 10
10.6875
 20
2.9583
 30
0
 70
     0
  0
SEQEND
  0
CIRCLE
  8
LAYER1
 10
10.6806
 20
3.4306
 30
0
 40
0.4722
  0
CIRCLE
  8
LAYER1
 10
10.6944
 20
3.4306
 30
0
 40
0.3194
  0
ENDBLK
  8
LAYER1
  0
BLOCK
  8
LAYER1
  2
Group31
 70
     0
 10
0
 20
0
 30
0
  0
LINE
  8
LAYER1
  6
CONTINUOUS
 62
     7
 10
10.1389
 20
4.4306
 30
0
 11
11.2222
 21
4.4306
 31
0
  0
POLYLINE
  8
LAYER1
  6
CONTINUOUS
 62
     7
 66
     1
 70
     0
 40
0.0039
 41
0.0039
  0
VERTEX
  8
LAYER1
 10
10.9583
 20
4.4306
 30
0
 70
     0
  0
VERTEX
  8
LAYER1
 10
10.9583
 20
4.4444
 30
0
 70
     0
  0
VERTEX
  8
LAYER1
 10
10.9722
 20
4.4861
 30
0
 70
     0
  0
VERTEX
  8
LAYER1
 10
10.9861
 20
4.5
 30
0
 70
     0
  0
VERTEX
  8
LAYER1
 10
11
 20
4.5139
 30
0
 70
     0
  0
VERTEX
  8
LAYER1
 10
11.0278
 20
4.5278
 30
0
 70
     0
  0
VERTEX
  8
LAYER1
 10
11.0556
 20
4.5417
 30
0
 70
     0
  0
VERTEX
  8
LAYER1
 10
11.0694
 20
4.5417
 30
0
 70
     0
  0
VERTEX
  8
LAYER1
 10
11.0833
 20
4.5417
 30
0
 70
     0
  0
VERTEX
  8
LAYER1
 10
11.0972
 20
4.5417
 30
0
 70
     0
  0
VERTEX
  8
LAYER1
 10
11.125
 20
4.5417
 30
0
 70
     0
  0
VERTEX
  8
LAYER1
 10
11.1528
 20
4.5278
 30
0
 70
     0
  0
VERTEX
  8
LAYER1
 10
11.1667
 20
4.5139
 30
0
 70
     0
  0
VERTEX
  8
LAYER1
 10
11.1806
 20
4.5
 30
0
 70
     0
  0
VERTEX
  8
LAYER1
 10
11.1944
 20
4.4861
 30
0
 70
     0
  0
VERTEX
  8
LAYER1
 10
11.2083
 20
4.4722
 30
0
 70
     0
  0
VERTEX
  8
LAYER1
 10
11.2222
 20
4.4583
 30
0
 70
     0
  0
VERTEX
  8
LAYER1
 10
11.2222
 20
4.4444
 30
0
 70
     0
  0
VERTEX
  8
LAYER1
 10
11.2222
 20
4.4306
 30
0
 70
     0
  0
SEQEND
  0
POLYLINE
  8
LAYER1
  6
CONTINUOUS
 62
     7
 66
     1
 70
     0
 40
0.0039
 41
0.0039
  0
VERTEX
  8
LAYER1
 10
10.4167
 20
4.4306
 30
0
 70
     0
  0
VERTEX
  8
LAYER1
 10
10.4444
 20
4.4583
 30
0
 70
     0
  0
VERTEX
  8
LAYER1
 10
10.5
 20
4.5
 30
0
 70
     0
  0
VERTEX
  8
LAYER1
 10
10.5694
 20
4.5278
 30
0
 70
     0
  0
VERTEX
  8
LAYER1
 10
10.6389
 20
4.5417
 30
0
 70
     0
  0
VERTEX
  8
LAYER1
 10
10.6806
 20
4.5417
 30
0
 70
     0
  0
VERTEX
  8
LAYER1
 10
10.7222
 20
4.5417
 30
0
 70
     0
  0
VERTEX
  8
LAYER1
 10
10.8056
 20
4.5278
 30
0
 70
     0
  0
VERTEX
  8
LAYER1
 10
10.875
 20
4.5
 30
0
 70
     0
  0
VERTEX
  8
LAYER1
 10
10.9306
 20
4.4583
 30
0
 70
     0
  0
VERTEX
  8
LAYER1
 10
10.9583
 20
4.4306
 30
0
 70
     0
  0
SEQEND
  0
POLYLINE
  8
LAYER1
  6
CONTINUOUS
 62
     7
 66
     1
 70
     0
 40
0.0039
 41
0.0039
  0
VERTEX
  8
LAYER1
 10
10.1389
 20
4.4306
 30
0
 70
     0
  0
VERTEX
  8
LAYER1
 10
10.1528
 20
4.4583
 30
0
 70
     0
  0
VERTEX
  8
LAYER1
 10
10.1667
 20
4.4861
 30
0
 70
     0
  0
VERTEX
  8
LAYER1
 10
10.1806
 20
4.5
 30
0
 70
     0
  0
VERTEX
  8
LAYER1
 10
10.1944
 20
4.5139
 30
0
 70
     0
  0
VERTEX
  8
LAYER1
 10
10.2222
 20
4.5278
 30
0
 70
     0
  0
VERTEX
  8
LAYER1
 10
10.25
 20
4.5417
 30
0
 70
     0
  0
VERTEX
  8
LAYER1
 10
10.2639
 20
4.5417
 30
0
 70
     0
  0
VERTEX
  8
LAYER1
 10
10.2778
 20
4.5417
 30
0
 70
     0
  0
VERTEX
  8
LAYER1
 10
10.2917
 20
4.5417
 30
0
 70
     0
  0
VERTEX
  8
LAYER1
 10
10.3056
 20
4.5417
 30
0
 70
     0
  0
VERTEX
  8
LAYER1
 10
10.3333
 20
4.5278
 30
0
 70
     0
  0
VERTEX
  8
LAYER1
 10
10.3611
 20
4.5139
 30
0
 70
     0
  0
VERTEX
  8
LAYER1
 10
10.375
 20
4.5
 30
0
 70
     0
  0
VERTEX
  8
LAYER1
 10
10.3889
 20
4.4861
 30
0
 70
     0
  0
VERTEX
  8
LAYER1
 10
10.4167
 20
4.4444
 30
0
 70
     0
  0
VERTEX
  8
LAYER1
 10
10.4167
 20
4.4306
 30
0
 70
     0
  0
SEQEND
  0
POLYLINE
  8
LAYER1
  6
CONTINUOUS
 62
     7
 66
     1
 70
     0
 40
0.0039
 41
0.0039
  0
VERTEX
  8
LAYER1
 10
11.2222
 20
4.4306
 30
0
 70
     0
  0
VERTEX
  8
LAYER1
 10
11.2222
 20
4
 30
0
 70
     0
  0
VERTEX
  8
LAYER1
 10
10.1389
 20
4
 30
0
 70
     0
  0
VERTEX
  8
LAYER1
 10
10.1389
 20
4.4306
 30
0
 70
     0
  0
SEQEND
  0
LINE
  8
LAYER1
  6
CONTINUOUS
 62
     7
 10
10.4167
 20
4
 30
0
 11
10.4167
 21
4.4306
 31
0
  0
LINE
  8
LAYER1
  6
CONTINUOUS
 62
     7
 10
10.9583
 20
4
 30
0
 11
10.9583
 21
4.4306
 31
0
  0
ENDBLK
  8
LAYER1
  0
BLOCK
  8
LAYER1
  2
Group32
 70
     0
 10
0
 20
0
 30
0
  0
LINE
  8
LAYER1
  6
CONTINUOUS
 62
     7
 10
10.2778
 20
4.5417
 30
0
 11
11.0833
 21
4.5417
 31
0
  0
POLYLINE
  8
LAYER1
  6
CONTINUOUS
 62
     7
 66
     1
 70
     0
 40
0.0039
 41
0.0039
  0
VERTEX
  8
LAYER1
 10
12.4375
 20
2.9583
 30
0
 70
     0
  0
VERTEX
  8
LAYER1
 10
12.3584
 20
2.9628
 30
0
 70
     0
  0
VERTEX
  8
LAYER1
 10
12.2843
 20
2.9761
 30
0
 70
     0
  0
VERTEX
  8
LAYER1
 10
12.2152
 20
2.9984
 30
0
 70
     0
  0
VERTEX
  8
LAYER1
 10
12.151
 20
3.0295
 30
0
 70
     0
  0
VERTEX
  8
LAYER1
 10
12.0919
 20
3.0695
 30
0
 70
     0
  0
VERTEX
  8
LAYER1
 10
12.0378
 20
3.1185
 30
0
 70
     0
  0
VERTEX
  8
LAYER1
 10
11.9886
 20
3.1763
 30
0
 70
     0
  0
VERTEX
  8
LAYER1
 10
11.9444
 20
3.2431
 30
0
 70
     0
  0
VERTEX
  8
LAYER1
 10
11.9444
 20
3.2431
 30
0
 70
     0
  0
VERTEX
  8
LAYER1
 10
11.908
 20
3.3141
 30
0
 70
     0
  0
VERTEX
  8
LAYER1
 10
11.8819
 20
3.385
 30
0
 70
     0
  0
VERTEX
  8
LAYER1
 10
11.8663
 20
3.4556
 30
0
 70
     0
  0
VERTEX
  8
LAYER1
 10
11.8611
 20
3.526
 30
0
 70
     0
  0
VERTEX
  8
LAYER1
 10
11.8663
 20
3.5962
 30
0
 70
     0
  0
VERTEX
  8
LAYER1
 10
11.8819
 20
3.6662
 30
0
 70
     0
  0
VERTEX
  8
LAYER1
 10
11.908
 20
3.736
 30
0
 70
     0
  0
VERTEX
  8
LAYER1
 10
11.9444
 20
3.8056
 30
0
 70
     0
  0
VERTEX
  8
LAYER1
 10
11.9444
 20
3.8056
 30
0
 70
     0
  0
VERTEX
  8
LAYER1
 10
11.9886
 20
3.8706
 30
0
 70
     0
  0
VERTEX
  8
LAYER1
 10
12.0378
 20
3.9271
 30
0
 70
     0
  0
VERTEX
  8
LAYER1
 10
12.0919
 20
3.9748
 30
0
 70
     0
  0
VERTEX
  8
LAYER1
 10
12.151
 20
4.0139
 30
0
 70
     0
  0
VERTEX
  8
LAYER1
 10
12.2152
 20
4.0443
 30
0
 70
     0
  0
VERTEX
  8
LAYER1
 10
12.2843
 20
4.066
 30
0
 70
     0
  0
VERTEX
  8
LAYER1
 10
12.3584
 20
4.079
 30
0
 70
     0
  0
VERTEX
  8
LAYER1
 10
12.4375
 20
4.0833
 30
0
 70
     0
  0
VERTEX
  8
LAYER1
 10
12.4375
 20
4.0833
 30
0
 70
     0
  0
VERTEX
  8
LAYER1
 10
12.5165
 20
4.079
 30
0
 70
     0
  0
VERTEX
  8
LAYER1
 10
12.5903
 20
4.066
 30
0
 70
     0
  0
VERTEX
  8
LAYER1
 10
12.6589
 20
4.0443
 30
0
 70
     0
  0
VERTEX
  8
LAYER1
 10
12.7222
 20
4.0139
 30
0
 70
     0
  0
VERTEX
  8
LAYER1
 10
12.7804
 20
3.9748
 30
0
 70
     0
  0
VERTEX
  8
LAYER1
 10
12.8333
 20
3.9271
 30
0
 70
     0
  0
VERTEX
  8
LAYER1
 10
12.8811
 20
3.8706
 30
0
 70
     0
  0
VERTEX
  8
LAYER1
 10
12.9236
 20
3.8056
 30
0
 70
     0
  0
VERTEX
  8
LAYER1
 10
12.9236
 20
3.8056
 30
0
 70
     0
  0
VERTEX
  8
LAYER1
 10
12.9586
 20
3.736
 30
0
 70
     0
  0
VERTEX
  8
LAYER1
 10
12.9835
 20
3.6662
 30
0
 70
     0
  0
VERTEX
  8
LAYER1
 10
12.9985
 20
3.5962
 30
0
 70
     0
  0
VERTEX
  8
LAYER1
 10
13.0035
 20
3.526
 30
0
 70
     0
  0
VERTEX
  8
LAYER1
 10
12.9985
 20
3.4556
 30
0
 70
     0
  0
VERTEX
  8
LAYER1
 10
12.9835
 20
3.385
 30
0
 70
     0
  0
VERTEX
  8
LAYER1
 10
12.9586
 20
3.3141
 30
0
 70
     0
  0
VERTEX
  8
LAYER1
 10
12.9236
 20
3.2431
 30
0
 70
     0
  0
VERTEX
  8
LAYER1
 10
12.9236
 20
3.2431
 30
0
 70
     0
  0
VERTEX
  8
LAYER1
 10
12.8811
 20
3.1763
 30
0
 70
     0
  0
VERTEX
  8
LAYER1
 10
12.8333
 20
3.1185
 30
0
 70
     0
  0
VERTEX
  8
LAYER1
 10
12.7804
 20
3.0695
 30
0
 70
     0
  0
VERTEX
  8
LAYER1
 10
12.7222
 20
3.0295
 30
0
 70
     0
  0
VERTEX
  8
LAYER1
 10
12.6589
 20
2.9984
 30
0
 70
     0
  0
VERTEX
  8
LAYER1
 10
12.5903
 20
2.9761
 30
0
 70
     0
  0
VERTEX
  8
LAYER1
 10
12.5165
 20
2.9628
 30
0
 70
     0
  0
VERTEX
  8
LAYER1
 10
12.4375
 20
2.9583
 30
0
 70
     0
  0
SEQEND
  0
CIRCLE
  8
LAYER1
 10
12.4444
 20
3.5139
 30
0
 40
0.5694
  0
CIRCLE
  8
LAYER1
 10
12.4375
 20
3.5208
 30
0
 40
0.3819
  0
ENDBLK
  8
LAYER1
  0
BLOCK
  8
LAYER1
  2
Group33
 70
     0
 10
0
 20
0
 30
0
  0
LINE
  8
LAYER1
  6
CONTINUOUS
 62
     7
 10
11.7778
 20
4.6667
 30
0
 11
13.0833
 21
4.6667
 31
0
  0
POLYLINE
  8
LAYER1
  6
CONTINUOUS
 62
     7
 66
     1
 70
     0
 40
0.0039
 41
0.0039
  0
VERTEX
  8
LAYER1
 10
12.7639
 20
4.6667
 30
0
 70
     0
  0
VERTEX
  8
LAYER1
 10
12.7778
 20
4.6944
 30
0
 70
     0
  0
VERTEX
  8
LAYER1
 10
12.7917
 20
4.7361
 30
0
 70
     0
  0
VERTEX
  8
LAYER1
 10
12.8056
 20
4.7639
 30
0
 70
     0
  0
VERTEX
  8
LAYER1
 10
12.8194
 20
4.7778
 30
0
 70
     0
  0
VERTEX
  8
LAYER1
 10
12.8611
 20
4.7917
 30
0
 70
     0
  0
VERTEX
  8
LAYER1
 10
12.8889
 20
4.8056
 30
0
 70
     0
  0
VERTEX
  8
LAYER1
 10
12.9167
 20
4.8056
 30
0
 70
     0
  0
VERTEX
  8
LAYER1
 10
12.9306
 20
4.8056
 30
0
 70
     0
  0
VERTEX
  8
LAYER1
 10
12.9444
 20
4.8056
 30
0
 70
     0
  0
VERTEX
  8
LAYER1
 10
12.9722
 20
4.8056
 30
0
 70
     0
  0
VERTEX
  8
LAYER1
 10
13
 20
4.7917
 30
0
 70
     0
  0
VERTEX
  8
LAYER1
 10
13.0278
 20
4.7778
 30
0
 70
     0
  0
VERTEX
  8
LAYER1
 10
13.0417
 20
4.7639
 30
0
 70
     0
  0
VERTEX
  8
LAYER1
 10
13.0556
 20
4.75
 30
0
 70
     0
  0
VERTEX
  8
LAYER1
 10
13.0694
 20
4.7222
 30
0
 70
     0
  0
VERTEX
  8
LAYER1
 10
13.0833
 20
4.6944
 30
0
 70
     0
  0
VERTEX
  8
LAYER1
 10
13.0833
 20
4.6806
 30
0
 70
     0
  0
VERTEX
  8
LAYER1
 10
13.0833
 20
4.6667
 30
0
 70
     0
  0
SEQEND
  0
POLYLINE
  8
LAYER1
  6
CONTINUOUS
 62
     7
 66
     1
 70
     0
 40
0.0039
 41
0.0039
  0
VERTEX
  8
LAYER1
 10
12.1111
 20
4.6667
 30
0
 70
     0
  0
VERTEX
  8
LAYER1
 10
12.1111
 20
4.6667
 30
0
 70
     0
  0
VERTEX
  8
LAYER1
 10
12.125
 20
4.6806
 30
0
 70
     0
  0
VERTEX
  8
LAYER1
 10
12.125
 20
4.6806
 30
0
 70
     0
  0
VERTEX
  8
LAYER1
 10
12.1389
 20
4.6944
 30
0
 70
     0
  0
VERTEX
  8
LAYER1
 10
12.1667
 20
4.7222
 30
0
 70
     0
  0
VERTEX
  8
LAYER1
 10
12.2083
 20
4.75
 30
0
 70
     0
  0
VERTEX
  8
LAYER1
 10
12.2361
 20
4.7639
 30
0
 70
     0
  0
VERTEX
  8
LAYER1
 10
12.2778
 20
4.7778
 30
0
 70
     0
  0
VERTEX
  8
LAYER1
 10
12.3194
 20
4.7917
 30
0
 70
     0
  0
VERTEX
  8
LAYER1
 10
12.375
 20
4.8056
 30
0
 70
     0
  0
VERTEX
  8
LAYER1
 10
12.4028
 20
4.8056
 30
0
 70
     0
  0
VERTEX
  8
LAYER1
 10
12.4306
 20
4.8056
 30
0
 70
     0
  0
VERTEX
  8
LAYER1
 10
12.4583
 20
4.8056
 30
0
 70
     0
  0
VERTEX
  8
LAYER1
 10
12.4861
 20
4.8056
 30
0
 70
     0
  0
VERTEX
  8
LAYER1
 10
12.5417
 20
4.7917
 30
0
 70
     0
  0
VERTEX
  8
LAYER1
 10
12.5833
 20
4.7778
 30
0
 70
     0
  0
VERTEX
  8
LAYER1
 10
12.625
 20
4.7639
 30
0
 70
     0
  0
VERTEX
  8
LAYER1
 10
12.6528
 20
4.75
 30
0
 70
     0
  0
VERTEX
  8
LAYER1
 10
12.7083
 20
4.7222
 30
0
 70
     0
  0
VERTEX
  8
LAYER1
 10
12.7361
 20
4.6944
 30
0
 70
     0
  0
VERTEX
  8
LAYER1
 10
12.75
 20
4.6806
 30
0
 70
     0
  0
VERTEX
  8
LAYER1
 10
12.7639
 20
4.6667
 30
0
 70
     0
  0
SEQEND
  0
POLYLINE
  8
LAYER1
  6
CONTINUOUS
 62
     7
 66
     1
 70
     0
 40
0.0039
 41
0.0039
  0
VERTEX
  8
LAYER1
 10
11.7778
 20
4.6667
 30
0
 70
     0
  0
VERTEX
  8
LAYER1
 10
11.7917
 20
4.6944
 30
0
 70
     0
  0
VERTEX
  8
LAYER1
 10
11.8194
 20
4.75
 30
0
 70
     0
  0
VERTEX
  8
LAYER1
 10
11.8333
 20
4.7639
 30
0
 70
     0
  0
VERTEX
  8
LAYER1
 10
11.8472
 20
4.7778
 30
0
 70
     0
  0
VERTEX
  8
LAYER1
 10
11.875
 20
4.7917
 30
0
 70
     0
  0
VERTEX
  8
LAYER1
 10
11.9028
 20
4.8056
 30
0
 70
     0
  0
VERTEX
  8
LAYER1
 10
11.9306
 20
4.8056
 30
0
 70
     0
  0
VERTEX
  8
LAYER1
 10
11.9444
 20
4.8056
 30
0
 70
     0
  0
VERTEX
  8
LAYER1
 10
11.9583
 20
4.8056
 30
0
 70
     0
  0
VERTEX
  8
LAYER1
 10
11.9861
 20
4.8056
 30
0
 70
     0
  0
VERTEX
  8
LAYER1
 10
12.0139
 20
4.7917
 30
0
 70
     0
  0
VERTEX
  8
LAYER1
 10
12.0417
 20
4.7778
 30
0
 70
     0
  0
VERTEX
  8
LAYER1
 10
12.0556
 20
4.7639
 30
0
 70
     0
  0
VERTEX
  8
LAYER1
 10
12.0833
 20
4.7361
 30
0
 70
     0
  0
VERTEX
  8
LAYER1
 10
12.1111
 20
4.6944
 30
0
 70
     0
  0
VERTEX
  8
LAYER1
 10
12.1111
 20
4.6667
 30
0
 70
     0
  0
SEQEND
  0
POLYLINE
  8
LAYER1
  6
CONTINUOUS
 62
     7
 66
     1
 70
     0
 40
0.0039
 41
0.0039
  0
VERTEX
  8
LAYER1
 10
13.0833
 20
4.6667
 30
0
 70
     0
  0
VERTEX
  8
LAYER1
 10
13.0833
 20
4.1667
 30
0
 70
     0
  0
VERTEX
  8
LAYER1
 10
11.7778
 20
4.1667
 30
0
 70
     0
  0
VERTEX
  8
LAYER1
 10
11.7778
 20
4.6667
 30
0
 70
     0
  0
SEQEND
  0
LINE
  8
LAYER1
  6
CONTINUOUS
 62
     7
 10
12.1111
 20
4.1667
 30
0
 11
12.1111
 21
4.6667
 31
0
  0
LINE
  8
LAYER1
  6
CONTINUOUS
 62
     7
 10
12.7639
 20
4.1667
 30
0
 11
12.7639
 21
4.6667
 31
0
  0
ENDBLK
  8
LAYER1
  0
BLOCK
  8
LAYER1
  2
Group34
 70
     0
 10
0
 20
0
 30
0
  0
TEXT
  8
LAYER1
 62
     7
 10
0.2051
 20
0.2179
 30
0
 40
0.0833
  1
Scale 1:1 Printed at 70%
 50
0
999
Geneva
  0
TEXT
  8
LAYER1
 62
     7
 10
4.1773
 20
0.3706
 30
0
 40
0.0833
  1
©1989,1990,1991,1992
 50
0
999
Geneva
  0
TEXT
  8
LAYER1
 62
     7
 10
4.0523
 20
0.204
 30
0
 40
0.0833
  1
Advanced System Design, Inc.
 50
0
999
Geneva
  0
ENDBLK
  8
LAYER1
  0
BLOCK
  8
LAYER1
  2
Group35
 70
     0
 10
0
 20
0
 30
0
  0
TEXT
  8
LAYER1
 62
     7
 10
8.6357
 20
0.2179
 30
0
 40
0.0833
  1
Scale 1:1 Printed at 70%
 50
0
999
Geneva
  0
TEXT
  8
LAYER1
 62
     7
 10
12.6357
 20
0.3706
 30
0
 40
0.0833
  1
©1989,1990,1991,1992
 50
0
999
Geneva
  0
TEXT
  8
LAYER1
 62
     7
 10
12.5107
 20
0.204
 30
0
 40
0.0833
  1
Advanced System Design, Inc.
 50
0
999
Geneva
  0
ENDBLK
  8
LAYER1
  0
BLOCK
  8
LAYER1
  2
Group36
 70
     0
 10
0
 20
0
 30
0
  0
TEXT
  8
LAYER1
 62
     7
 10
2.594
 20
0.079
 30
0
 40
0.1389
  1
- 4-277 -
 50
0
999
Geneva
  0
TEXT
  8
LAYER1
 62
     7
 10
10.969
 20
0.079
 30
0
 40
0.1389
  1
- 4-278 -
 50
0
999
Geneva
  0
TEXT
  8
LAYER1
 62
     7
 10
0.2051
 20
10.5651
 30
0
 40
0.125
  1
Nuts - Hex Metric
 50
0
999
Geneva
  0
LINE
  8
LAYER1
  6
CONTINUOUS
 62
     7
 10
0.1806
 20
10.8056
 30
0
 11
4.7222
 21
10.8056
 31
0
  0
INSERT
  8
LAYER1
  2
Group1
 10
0
 20
0
 30
0
  0
INSERT
  8
LAYER1
  2
Group2
 10
0
 20
0
 30
0
  0
TEXT
  8
LAYER1
 62
     7
 10
2.8301
 20
8.9956
 30
0
 40
0.0833
  1
M7x4
 50
0
999
Geneva
  0
TEXT
  8
LAYER1
 62
     7
 10
2.8579
 20
8.8012
 30
0
 40
0.0833
  1
7mm
 50
0
999
Geneva
  0
INSERT
  8
LAYER1
  2
Group3
 10
0
 20
0
 30
0
  0
INSERT
  8
LAYER1
  2
Group4
 10
0
 20
0
 30
0
  0
TEXT
  8
LAYER1
 62
     7
 10
2.8023
 20
7.2318
 30
0
 40
0.0833
  1
M8x5
 50
0
999
Geneva
  0
TEXT
  8
LAYER1
 62
     7
 10
2.8301
 20
7.0234
 30
0
 40
0.0833
  1
8mm
 50
0
999
Geneva
  0
TEXT
  8
LAYER1
 62
     7
 10
2.7607
 20
5.3984
 30
0
 40
0.0833
  1
M10x6
 50
0
999
Geneva
  0
TEXT
  8
LAYER1
 62
     7
 10
2.7884
 20
5.204
 30
0
 40
0.0833
  1
10mm
 50
0
999
Geneva
  0
INSERT
  8
LAYER1
  2
Group5
 10
0
 20
0
 30
0
  0
INSERT
  8
LAYER1
  2
Group6
 10
0
 20
0
 30
0
  0
INSERT
  8
LAYER1
  2
Group7
 10
0
 20
0
 30
0
  0
INSERT
  8
LAYER1
  2
Group8
 10
0
 20
0
 30
0
  0
TEXT
  8
LAYER1
 62
     7
 10
2.7746
 20
3.4401
 30
0
 40
0.0833
  1
M13x8
 50
0
999
Geneva
  0
TEXT
  8
LAYER1
 62
     7
 10
2.7884
 20
3.2456
 30
0
 40
0.0833
  1
13mm
 50
0
999
Geneva
  0
TEXT
  8
LAYER1
 62
     7
 10
2.719
 20
1.1623
 30
0
 40
0.0833
  1
M10x17
 50
0
999
Geneva
  0
TEXT
  8
LAYER1
 62
     7
 10
2.7746
 20
0.9679
 30
0
 40
0.0833
  1
17mm
 50
0
999
Geneva
  0
INSERT
  8
LAYER1
  2
Group9
 10
0
 20
0
 30
0
  0
INSERT
  8
LAYER1
  2
Group10
 10
0
 20
0
 30
0
  0
INSERT
  8
LAYER1
  2
Group11
 10
0
 20
0
 30
0
  0
INSERT
  8
LAYER1
  2
Group12
 10
0
 20
0
 30
0
  0
TEXT
  8
LAYER1
 62
     7
 10
9.219
 20
8.1762
 30
0
 40
0.0833
  1
ANS 3/16
 50
0
999
Geneva
  0
TEXT
  8
LAYER1
 62
     7
 10
9.219
 20
7.9818
 30
0
 40
0.0833
  1
ANS 3/16
 50
0
999
Geneva
  0
INSERT
  8
LAYER1
  2
Group13
 10
0
 20
0
 30
0
  0
INSERT
  8
LAYER1
  2
Group15
 10
0
 20
0
 30
0
  0
TEXT
  8
LAYER1
 62
     7
 10
10.0246
 20
8.1762
 30
0
 40
0.0833
  1
ANS #5-5/16
 50
0
999
Geneva
  0
TEXT
  8
LAYER1
 62
     7
 10
10.094
 20
7.9818
 30
0
 40
0.0833
  1
ANS 5/16
 50
0
999
Geneva
  0
TEXT
  8
LAYER1
 62
     7
 10
12.0523
 20
8.1762
 30
0
 40
0.0833
  1
ANS 11/32
 50
0
999
Geneva
  0
TEXT
  8
LAYER1
 62
     7
 10
12.0523
 20
7.9818
 30
0
 40
0.0833
  1
ANS 11/32
 50
0
999
Geneva
  0
INSERT
  8
LAYER1
  2
Group16
 10
0
 20
0
 30
0
  0
INSERT
  8
LAYER1
  2
Group17
 10
0
 20
0
 30
0
  0
TEXT
  8
LAYER1
 62
     7
 10
12.969
 20
8.1762
 30
0
 40
0.0833
  1
ANS 3/8
 50
0
999
Geneva
  0
TEXT
  8
LAYER1
 62
     7
 10
12.969
 20
7.9818
 30
0
 40
0.0833
  1
ANS 3/8
 50
0
999
Geneva
  0
INSERT
  8
LAYER1
  2
Group18
 10
0
 20
0
 30
0
  0
INSERT
  8
LAYER1
  2
Group19
 10
0
 20
0
 30
0
  0
TEXT
  8
LAYER1
 62
     7
 10
9.219
 20
5.704
 30
0
 40
0.0833
  1
ANS 7/16
 50
0
999
Geneva
  0
TEXT
  8
LAYER1
 62
     7
 10
9.219
 20
5.5095
 30
0
 40
0.0833
  1
ANS 7/16
 50
0
999
Geneva
  0
INSERT
  8
LAYER1
  2
Group20
 10
0
 20
0
 30
0
  0
INSERT
  8
LAYER1
  2
Group21
 10
0
 20
0
 30
0
  0
TEXT
  8
LAYER1
 62
     7
 10
10.3301
 20
5.704
 30
0
 40
0.0833
  1
ANS 9/16
 50
0
999
Geneva
  0
TEXT
  8
LAYER1
 62
     7
 10
10.3162
 20
5.5095
 30
0
 40
0.0833
  1
ANS 9/16
 50
0
999
Geneva
  0
INSERT
  8
LAYER1
  2
Group22
 10
0
 20
0
 30
0
  0
INSERT
  8
LAYER1
  2
Group23
 10
0
 20
0
 30
0
  0
TEXT
  8
LAYER1
 62
     7
 10
11.7051
 20
5.704
 30
0
 40
0.0833
  1
ANS 3/4
 50
0
999
Geneva
  0
TEXT
  8
LAYER1
 62
     7
 10
11.6912
 20
5.5095
 30
0
 40
0.0833
  1
ANS 3/4
 50
0
999
Geneva
  0
INSERT
  8
LAYER1
  2
Group24
 10
0
 20
0
 30
0
  0
INSERT
  8
LAYER1
  2
Group25
 10
0
 20
0
 30
0
  0
TEXT
  8
LAYER1
 62
     7
 10
11.0523
 20
8.1762
 30
0
 40
0.0833
  1
ANS #6-5/16
 50
0
999
Geneva
  0
TEXT
  8
LAYER1
 62
     7
 10
11.1079
 20
7.9818
 30
0
 40
0.0833
  1
ANS 5/16
 50
0
999
Geneva
  0
INSERT
  8
LAYER1
  2
Group26
 10
0
 20
0
 30
0
  0
INSERT
  8
LAYER1
  2
Group27
 10
0
 20
0
 30
0
  0
TEXT
  8
LAYER1
 62
     7
 10
13.0523
 20
5.704
 30
0
 40
0.0833
  1
ANS 7/8
 50
0
999
Geneva
  0
TEXT
  8
LAYER1
 62
     7
 10
13.0523
 20
5.5095
 30
0
 40
0.0833
  1
ANS 7/8
 50
0
999
Geneva
  0
INSERT
  8
LAYER1
  2
Group28
 10
0
 20
0
 30
0
  0
INSERT
  8
LAYER1
  2
Group29
 10
0
 20
0
 30
0
  0
TEXT
  8
LAYER1
 62
     7
 10
10.3023
 20
2.829
 30
0
 40
0.0833
  1
ANS 15/16
 50
0
999
Geneva
  0
TEXT
  8
LAYER1
 62
     7
 10
10.3023
 20
2.6345
 30
0
 40
0.0833
  1
ANS 15/16
 50
0
999
Geneva
  0
INSERT
  8
LAYER1
  2
Group30
 10
0
 20
0
 30
0
  0
INSERT
  8
LAYER1
  2
Group31
 10
0
 20
0
 30
0
  0
TEXT
  8
LAYER1
 62
     7
 10
12.0662
 20
2.829
 30
0
 40
0.0833
  1
ANS 1-1/8
 50
0
999
Geneva
  0
TEXT
  8
LAYER1
 62
     7
 10
12.0662
 20
2.6345
 30
0
 40
0.0833
  1
ANS 1-1/8
 50
0
999
Geneva
  0
INSERT
  8
LAYER1
  2
Group32
 10
0
 20
0
 30
0
  0
INSERT
  8
LAYER1
  2
Group33
 10
0
 20
0
 30
0
  0
TEXT
  8
LAYER1
 62
     7
 10
2.7884
 20
9.8429
 30
0
 40
0.0833
  1
57100
 50
0
999
Geneva
  0
TEXT
  8
LAYER1
 62
     7
 10
2.8162
 20
8.6206
 30
0
 40
0.0833
  1
57101
 50
0
999
Geneva
  0
TEXT
  8
LAYER1
 62
     7
 10
2.7884
 20
8.1484
 30
0
 40
0.0833
  1
57102
 50
0
999
Geneva
  0
TEXT
  8
LAYER1
 62
     7
 10
2.7884
 20
6.8568
 30
0
 40
0.0833
  1
57103
 50
0
999
Geneva
  0
TEXT
  8
LAYER1
 62
     7
 10
2.8023
 20
6.4262
 30
0
 40
0.0833
  1
57104
 50
0
999
Geneva
  0
TEXT
  8
LAYER1
 62
     7
 10
2.7884
 20
5.0373
 30
0
 40
0.0833
  1
57105
 50
0
999
Geneva
  0
TEXT
  8
LAYER1
 62
     7
 10
2.8023
 20
4.6623
 30
0
 40
0.0833
  1
57106
 50
0
999
Geneva
  0
TEXT
  8
LAYER1
 62
     7
 10
2.8023
 20
3.0651
 30
0
 40
0.0833
  1
57107
 50
0
999
Geneva
  0
TEXT
  8
LAYER1
 62
     7
 10
2.8301
 20
2.579
 30
0
 40
0.0833
  1
57108
 50
0
999
Geneva
  0
TEXT
  8
LAYER1
 62
     7
 10
2.7746
 20
0.7873
 30
0
 40
0.0833
  1
57109
 50
0
999
Geneva
  0
TEXT
  8
LAYER1
 62
     7
 10
9.3857
 20
7.8012
 30
0
 40
0.0833
  1
56800
 50
0
999
Geneva
  0
TEXT
  8
LAYER1
 62
     7
 10
9.3857
 20
8.9123
 30
0
 40
0.0833
  1
56801
 50
0
999
Geneva
  0
TEXT
  8
LAYER1
 62
     7
 10
10.1912
 20
7.8012
 30
0
 40
0.0833
  1
56802
 50
0
999
Geneva
  0
TEXT
  8
LAYER1
 62
     7
 10
10.1912
 20
9.0095
 30
0
 40
0.0833
  1
56803
 50
0
999
Geneva
  0
TEXT
  8
LAYER1
 62
     7
 10
11.2884
 20
7.8012
 30
0
 40
0.0833
  1
56804
 50
0
999
Geneva
  0
TEXT
  8
LAYER1
 62
     7
 10
11.2884
 20
9.0095
 30
0
 40
0.0833
  1
56805
 50
0
999
Geneva
  0
TEXT
  8
LAYER1
 62
     7
 10
12.1912
 20
7.8012
 30
0
 40
0.0833
  1
56806
 50
0
999
Geneva
  0
TEXT
  8
LAYER1
 62
     7
 10
12.1912
 20
9.1068
 30
0
 40
0.0833
  1
56807
 50
0
999
Geneva
  0
TEXT
  8
LAYER1
 62
     7
 10
13.094
 20
7.8012
 30
0
 40
0.0833
  1
56808
 50
0
999
Geneva
  0
TEXT
  8
LAYER1
 62
     7
 10
13.094
 20
9.1068
 30
0
 40
0.0833
  1
56809
 50
0
999
Geneva
  0
TEXT
  8
LAYER1
 62
     7
 10
9.2884
 20
5.3012
 30
0
 40
0.0833
  1
56810
 50
0
999
Geneva
  0
TEXT
  8
LAYER1
 62
     7
 10
9.2884
 20
6.8012
 30
0
 40
0.0833
  1
56811
 50
0
999
Geneva
  0
TEXT
  8
LAYER1
 62
     7
 10
10.3857
 20
5.3012
 30
0
 40
0.0833
  1
56812
 50
0
999
Geneva
  0
TEXT
  8
LAYER1
 62
     7
 10
10.4968
 20
7.0095
 30
0
 40
0.0833
  1
56813
 50
0
999
Geneva
  0
TEXT
  8
LAYER1
 62
     7
 10
11.6912
 20
5.3012
 30
0
 40
0.0833
  1
56814
 50
0
999
Geneva
  0
TEXT
  8
LAYER1
 62
     7
 10
11.7884
 20
7.3012
 30
0
 40
0.0833
  1
56815
 50
0
999
Geneva
  0
TEXT
  8
LAYER1
 62
     7
 10
13.1912
 20
5.3012
 30
0
 40
0.0833
  1
56816
 50
0
999
Geneva
  0
TEXT
  8
LAYER1
 62
     7
 10
13.1912
 20
7.5234
 30
0
 40
0.0833
  1
56817
 50
0
999
Geneva
  0
TEXT
  8
LAYER1
 62
     7
 10
10.4968
 20
2.5095
 30
0
 40
0.0833
  1
56818
 50
0
999
Geneva
  0
TEXT
  8
LAYER1
 62
     7
 10
10.4968
 20
4.7456
 30
0
 40
0.0833
  1
56819
 50
0
999
Geneva
  0
TEXT
  8
LAYER1
 62
     7
 10
12.1912
 20
2.5095
 30
0
 40
0.0833
  1
56820
 50
0
999
Geneva
  0
TEXT
  8
LAYER1
 62
     7
 10
12.3023
 20
5.0512
 30
0
 40
0.0833
  1
56821
 50
0
999
Geneva
  0
TEXT
  8
LAYER1
 62
     7
 10
8.6634
 20
10.5651
 30
0
 40
0.125
  1
Nuts - Hex ANS
 50
0
999
Geneva
  0
LINE
  8
LAYER1
  6
CONTINUOUS
 62
     7
 10
11.9444
 20
4.8056
 30
0
 11
12.9306
 21
4.8056
 31
0
  0
LINE
  8
LAYER1
  6
CONTINUOUS
 62
     7
 10
8.6389
 20
10.8056
 30
0
 11
13.1806
 21
10.8056
 31
0
  0
INSERT
  8
LAYER1
  2
Group34
 10
0
 20
0
 30
0
  0
INSERT
  8
LAYER1
  2
Group35
 10
0
 20
0
 30
0
  0
ENDBLK
  8
LAYER1
  0
ENDSEC
  0
SECTION
  2
ENTITIES
  0
INSERT
  8
LAYER1
  2
Group36
 10
0
 20
0
 30
0
  0
ENDSEC
  0
EOF
